Song name
# A B C D E F G H I J K L M N O P Q R S T U V W X Y Z

Norah Jones - Ill Be Your Baby Tonight tab

----------------------------------------------------------------------------
                  I'll Be Your Baby Tonight - Norah Jones                   
----------------------------------------------------------------------------
Tabbed by: PJL

This is my first tab. I think its pretty close until the end, though in some
sections the piano takes over and in those sections I tried to make the
guitar part interesting.

Tuning: Standard

Intro

e|----------------------------------|----------------------------------|
B|--------3---------------3---------|-------3---------------3----------|
G|----3-------3---3---3-------3---3-|---3-------3---3---3-------3---3--|
D|------3-------3-------3-------3---|-----3-------3-------3-------3----|
A|--1---------------1---------------|-1---------------1----------------|
E|----------------------------------|----------------------------------|


e|----------------------------------|----------------------------------|
B|--------3---------------3---------|-------3---------------3----------|
G|----3-------3---3---3-------3---3-|---3-------3---3---3-------3---3--|
D|------3-------3-------3-------3---|-----3-------3-------3-------3----|
A|--1---------------1---------------|-1---------------1----------------|
E|----------------------------------|----------------------------------|
                                                             Close your

Verse

e|----------------------------------|----------------------------------|
B|--------3---------------3---------|-------3---------------3----------|
G|----3-------3---3---3-------3---3-|---3-------3---3---3-------3---3--|
D|------3-------3-------3-------3---|-----5-------3-------5-------3----|
A|--1---------------1---------------|-3---------------3----------------|
E|----------------------------------|----------------------------------|
   eyes,      close the door, you don't have to worry anymore

e|------------------------1---------|----------------------------------|
B|--------3-------------------------|-------3---------------3----------|
G|----3-------3---3---2-3-----3---3-|---3-------3---3---3-------3---3--|
D|--1---3-------3---1-----------3---|-----3-------3-------3-------3----|
A|----------------------------------|-1---------------1----------------|
E|----------------------------------|----------------------------------|
        Cause Ill be your     baby   tonight                 Shut the 

e|----------------------------------|----------------------------------|
B|--------3---------------3---------|-------3---------------3----------|
G|----3-------3---3---3-------3---3-|---3-------3---3---3-------3---3--|
D|------3-------3-------3-------3---|-----5-------3-------5-------3----|
A|--1---------------1---------------|-3---------------3----------------|
E|----------------------------------|----------------------------------|
   lights,  and shut the shades, you don't have to be afraid

e|------------------------1---------|----------------------------------|
B|--------3-------------------------|-------3-------------3---4---3----|
G|----3-------3---3---2-3-----3---3-|---3-------3---3---3--------------|
D|--1---3-------3---1-----------3---|-----3-------3--------------------|
A|----------------------------------|-1---------------1----------------|
E|----------------------------------|----------------------------------|
        Cause Ill be your     baby   tonight                     Well that

Chorus to be played solo (a bit of an elaboration on the real song)

e|--------3---------------3---------|-------1---------------1----------|
B|----4-------4---4---4-------4---4-|---3-------3---3---3-------3---3--|
G|------3-------3-------3-------3---|-----3-------3-------3-------3----|
D|--1---------------1---------------|----------------------------------|
A|----------------------------------|-1---------------1----------------|
E|----------------------------------|----------------------------------|
mockingbird is gonna sail away           We're gonna forget it

e|--------3---------------3---------|-------1---------------1----------|
B|----4-------4---4---4-------4---4-|---3-------3---3------------------|
G|------5-------5-------5-------5---|-----3-------3-----2-3-----3---3--|
D|----------------------------------|-----------------------------3----|
A|--3---------------3---------------|-1---------------1----------------|
E|----------------------------------|----------------------------------|
 Big fat moon is gonna shine like a spoon, we're gonna let it, you wont regret it, take your 

Verse

e|----------------------------------|----------------------------------|
B|--------3---------------3---------|-------3---------------3----------|
G|----3-------3---3---3-------3---3-|---3-------3---3---3-------3---3--|
D|------3-------3-------3-------3---|-----5-------3-------5-------3----|
A|--1---------------1---------------|-3---------------3----------------|
E|----------------------------------|----------------------------------|
   shoes off, and don't you fear, bring that bottle    over here,

e|------------------------1---------|----------------------------------|
B|--------3-------------------------|-------3---------------3----------|
G|----3-------3---3---3-2-----3---3-|---3-------3---3---3-------3---3--|
D|--1---3-------3---1-----------3---|-----3-------3-------3-------3----|
A|----------------------------------|-1---------------1----------------|
E|----------------------------------|----------------------------------|
        Cause Ill be your     baby   tonight

e|----------------------------------|----------------------------------|
B|--------3---------------3---------|-------3---------------3----------|
G|----3-------3---3---3-------3---3-|---3-------3---3---3-------3---3--|
D|------3-------3-------3-------3---|-----5-------3-------5-------3----|
A|--1---------------1---------------|-3---------------3----------------|
E|----------------------------------|----------------------------------|


e|------------------------1---------|----------------------------------|
B|--------3-------------------------|-------3-------------3---4---3----|
G|----3-------3---3---2-3-----3---3-|---3-------3---3---3--------------|
D|--1---3-------3---1-----------3---|-----3-------3--------------------|
A|----------------------------------|-1---------------1----------------|
E|----------------------------------|----------------------------------|


Bridge - get a bit creative with this base.

e|----------------------------------|----------------------------------|
B|--------3---------------3---------|-------3---------------3----------|
G|----3-------3---3---3-------3---3-|---3-------3---3---3-------3---3--|
D|------3-------3-------3-------3---|-----5-------3-------5-------3----|
A|--1---------------1---------------|-3---------------3----------------|
E|----------------------------------|----------------------------------|


e|------------------------1---------|----------------------------------|
B|--------3-------------------------|-------3---------------3----------|
G|----3-------3---3---2-3-----3---3-|---3-------3---3---3-------3---3--|
D|--1---3-------3---1-----------3---|-----3-------3-------3-------3----|
A|----------------------------------|-1---------------1----------------|
E|----------------------------------|----------------------------------|
                                                              Well that

Verse (again)

e|--------3---------------3---------|-------1---------------1----------|
B|----4-------4---4---4-------4---4-|---3-------3---3---3-------3---3--|
G|------3-------3-------3-------3---|-----3-------3-------3-------3----|
D|--1---------------1---------------|----------------------------------|
A|----------------------------------|-1---------------1----------------|
E|----------------------------------|----------------------------------|
mockingbird is gonna sail away           We're gonna forget it

e|--------3---------------3---------|-------1---------------1----------|
B|----4-------4---4---4-------4---4-|---3-------3---3------------------|
G|------5-------5-------5-------5---|-----3-------3-----2-3-----3---3--|
D|----------------------------------|-----------------------------3----|
A|--3---------------3---------------|-1---------------1----------------|
E|----------------------------------|----------------------------------|
 Big fat moon is gonna shine like a spoon, we're gonna let it, you wont regret it, take your 

Chorus (again)

e|----------------------------------|----------------------------------|
B|--------3---------------3---------|-------3---------------3----------|
G|----3-------3---3---3-------3---3-|---3-------3---3---3-------3---3--|
D|------3-------3-------3-------3---|-----5-------3-------5-------3----|
A|--1---------------1---------------|-3---------------3----------------|
E|----------------------------------|----------------------------------|
   shoes off, and don't you fear, bring that bottle    over here,


e|------------------------1---------|----------------------------------|
B|--------3-------------------------|-------3---------------3---4---6--|
G|----3-------3---3---3-2-----3---3-|---3-------3---3---3--------------|
D|--1---3-------3---1-----------3---|-----3-------3-------3------------|
A|----------------------------------|-1---------------1----------------|
E|----------------------------------|----------------------------------|
        Cause Ill be your     baby   tonight


e|--3---------------------1---------|----------------------------------|
B|--------3-------------------------|-------3--------------------------|
G|----3-------3---3---3-2-----3---3-|---3-------3---3---3---3---4---6--|
D|------3-------3---1-----------3---|-----3-------3-------3------------|
A|----------------------------------|-1---------------1----------------|
E|----------------------------------|----------------------------------|
        Cause Ill be your     baby   tonight


e|--3-------------------------------|----------------------------------|
B|--------3-------------------------|-------3---------------3----------|
G|----3-------3---3---3-2-----3---3-|---3-------3---3---3-------3---3--|
D|------3-------3---1-----------3---|-----3-------3-------3-------3----|
A|----------------------------------|-1---------------1----------------|
E|----------------------------------|----------------------------------|
        Cause Ill be your     baby   tonight         tonight


e|-----------7-----9----------------|
B|-------3---9-----10---------------|
G|---3-------9-----9----------------|
D|-----3----------------------------|
A|-1--------------------------------|
E|----------------------------------|





Post Script: 

1st chorus as it is actually played when with the piano.

e|----------------------------------|----------------------------------|
B|----------------------------------|----------------------------------|
G|------3-----3---------3-----3-----|-----3-----3---------3-----3------|
D|--1---------------1---------------|----------------------------------|
A|----------------------------------|-1---------------1----------------|
E|----------------------------------|----------------------------------|


e|----------------------------------|----------------------------------|
B|----------------------------------|----------------------------------|
G|------3-----3---------3-----3-----|-----3-----3---------3-----3---3--|
D|----------------------------------|-1---------------1-----------3----|
A|--3---------------3---------------|----------------------------------|
E|----------------------------------|----------------------------------|

Tap to rate this tab
 
# A B C D E F G H I J K L M N O P Q R S T U V W X Y Z