Song name
# A B C D E F G H I J K L M N O P Q R S T U V W X Y Z

Norah Jones - Take It Back tab

tuning: standard

  0:00  this x3
e|----------------------------------------------------------------|
b|----------------------------------------------------------------|
g|----------------------------------------------------------------|
d|------------------7---7---7---7---7---7---7---7---5---5---5---5-|
a|--5---5---5---5-5---5---5---5---3---3---3---3---3---3---3---3---|
e|3---3---3---3---------------------------------------------------|
  0:35 
e|---------------------------------|
b|---------------------------------|
g|---------------------------------|
d|---7---7---7---7---5---5---5---5-|
a|-3---3---3---3---3---3---3---3---|
e|---------------------------------|
  0:40 this x2
e|-------------------------------------------------------------------|
b|-------------------------------------------------------------------|
g|-------------------------------------------------------------------|
d|-------------------------------------------------------------------|
a|---5---5---5---5---5---5---5---5-----7---7---7---7---7---7---7---7-|
e|-3---3---3---3---0---0---0---0-----5---5---5---5---5---5---5---5---|
  1:04 this x2
e|----------------|----------------|----------------|----------------|
b|----------------|----------------|----------------|----------------|
g|--------3-------|----------------|----------------|--------3-------|
d|----5-----5---5-|--7---7-8-7---7-|--7---7-8-7---7-|--5---5---5---5-|
a|--5---5-----5---|5---5-------5---|3---3-------3---|3---3-------3---|
e|3---------------|----------------|----------------|----------------|
  1:27 this x2
e|----------------------------------------------------------------|
b|----------------------------------------------------------------|
g|----------------------------------------------------------------|
d|------------------7---7---7---7---7---7---7---7---5---5---5---5-|
a|--5---5---5---5-5---5---5---5---3---3---3---3---3---3---3---3---|
e|3---3---3---3---------------------------------------------------|
  1:50
e|---------------------------------|
b|---------------------------------|
g|---------------------------------|
d|---7---7---7---7---5---5---5---5-|
a|-3---3---3---3---3---3---3---3---|
e|---------------------------------|
  1:56 this x2
e|-------------------------------------------------------------------|
b|-------------------------------------------------------------------|
g|-------------------------------------------------------------------|
d|-------------------------------------------------------------------|
a|---5---5---5---5---5---5---5---5-----7---7---7---7---7---7---7---7-|
e|-3---3---3---3---0---0---0---0-----5---5---5---5---5---5---5---5---|
  2:20 rest of the song
e|----------------|----------------|----------------|----------------|
b|----------------|----------------|----------------|----------------|
g|--------3-------|----------------|----------------|--------3-------|
d|----5-----5---5-|--7---7-8-7---7-|--7---7-8-7---7-|--5---5---5---5-|
a|--5---5-----5---|5---5-------5---|3---3-------3---|3---3-------3---|
e|3---------------|----------------|----------------|----------------|
Tap to rate this tab
 
# A B C D E F G H I J K L M N O P Q R S T U V W X Y Z