Song name
# A B C D E F G H I J K L M N O P Q R S T U V W X Y Z

Norah Jones - Back To Manhatten tab

This is a version with a capo on the 3rd fret because I think its a lot easier to play like that.

So I basically copied and changed dvanwyk's tab to this
 

Tuning:Standard, Capo 3rd fret

 Intro 
e|3------3------3------3-------------|
B|--3------3------3-------3----------|
G|----0------0------0--------0-------|
D|-----------------------------------|
A|------------------------0--2-------|
E|3------3------3------3-------------|

 
 Verse x2
e|---------------------3-------------| 
B|0------0------0---------3----------| 
G|--0------0------0----------0-------|
D|----2------2------2----------------|
A|3------3------3---------0--2-------|
E|---------------------3-------------|

e|-------2------3--------------------|
B|0--------3~------3-----------------|
G|--0-----------------0--------------|
D|----2--0---------------------------|
A|3----------------0--2--------------|
E|--------------3--------------------|

 
 Pre-Chorus
e|-----------------------|
B|0------0------0--------|
G|--0------0------0------|
D|----2------2------2----|
A|3------3------3--------|
E|-----------------------|


 Chorus
e|2------3-----------------------|
B|--3------3----0------0---------|
G|----2------0----0------0-------|
D|0-----------------2------2-----|
A|--------------3------3---------|
E|-------3-----------------------|

e|2-------------3------------------------|
B|--3----0---------3------0------0-------|
G|----2----0----------0-----0------0-----|
D|0----------2----------------2------2---|
A|-------3---------0--2---3------3-------|
E|--------------3------------------------|

e|2------3--------------------------------------|
B|--3------3----1--------1--1--3--1------1------|
G|----2------0----0-----------------0------0----|
D|0-----------------2-----------------2------2--|
A|--------------3------3----3--2--3------3------|
E|-------3--------------------------------------|

e|------------|
B|------1~----|
G|----0~------|
D|--2~--------|
A|3~----------|
E|------------|

 verse x1

 Bridge
e|------------------------------|
B|0------0------0------0--------|
G|--1------1------1------1------|
D|----2------2------2------2----|
A|3------3------0------0--------|
E|------------------------------|

e|--------------------------------|
B|0------0------0--------0--------|
G|--3------3------2-0------2-0----|
D|----0------0--------0--------0--|
A|3------3------0--------0--------|
E|--------------------------------|

e|------------------------------------|
B|0------0------0----------0----------|
G|--0------0------2-0--------2-0------|
D|----2------2--------2-0--------2-0--|
A|3------3------0----------0----------|
E|------------------------------------|

e|---------------|
B|0------0-------|
G|--0------0-----|
D|----2------2---|
A|3------3-------|
E|---------------|

e|3----------|
B|---3-------|
G|------0----|
D|-----------|
A|---0--2----|
E|3----------|

 Verse x1

 Pre-Chorus

 Chorus

 Verse x1
 
 Outro
e|---------------|
B|0------0-------|
G|--0------0-----|
D|----2------2---|
A|3------3-------|
E|---------------|

e|-----------|
B|0~---------|
G|0~---------|
D|2~---------|
A|3~---------|
E|-----------|
Tap to rate this tab
# A B C D E F G H I J K L M N O P Q R S T U V W X Y Z