Song name
# A B C D E F G H I J K L M N O P Q R S T U V W X Y Z

Norah Jones - Humble Me tab

Tabbed by: Picking_Wolle
Email: take.6@gmx.de

This is one of my first Tabbings. Hope, you'll enjoy.
If there's something wrong, let me know,
for changing and better playing!

Humble Me Tab by Norah Jones,

Title: "Humble Me"
Artist:"Norah Jones"
Album: "DVD-Norah Jones and the Handsome Band"

Resonator Guitar as played by Kevin Breit
Tuning: Open D tuned down to Open C
C G C E G C

| /  slide up
| \  slide down
| h  hammer-on
| p  pull-off
| ~  vibrato
| +  harmonic
| x  Mute note
| T  Time


Intro (free timing):
    T      T                               T     T      T     T
c :---7-7--5-5-5-4-4-4-|---7-7--4-4-4--5-|---4-4-4-4-4----2-2-2-2-2-|
g :--------------------|-----------------|---0-0-0-0-0----0-0-0-0-0-|
E :---8-8--4-4-4-3-3-3-|---8-8--3-3-3--5-|-------3------------1-----|
C :-0------------------|-0---------------|-0------------------------|
G :--------------------|-----------------|--------------0-----------|
C :--------------------|-----------------|--------------------------|

    T     T      T     T       T     T      T     T       T     T     T      T
c :---0-0-0------------0-----|---4-4-4-4-4----2-2-2-2-2-|-----------0---------|
g :---0-0-0-0--------0---0---|---0-0-0-0-0----0-0-0-0-0-|---0-----0-----------|
E :-------0---0----1-------1-|-------3------------1-----|-----0-1-------------|
C :-0------------------------|-0------------------------|-0-----------2/4-----|
G :--------------2-----------|--------------0-----------|-------2-------------|
C :--------------------------|--------------------------|---------------------|

Vers:
    T     T       T     T       T     T      T     T       T     T      T     T       T  
  T     T     T
c :---4-4-4-4-4-----2-2-2-2-2-|---0-0-0------------0-----|---4-4-4-4-4----2-2-2-2-2-|-----------0--------|
g :---0-0-0-0-0-----0-0-0-0-0-|---0-0-0-0--------0---0---|---0-0-0-0-0----0-0-0-0-0-|---0-----0----------|
E :-------3-------------1-----|-------0---0----1-------1-|-------3------------1-----|-----0-1------------|
C :-0-------------------------|-0------------------------|-0------------------------|-0-----------2/4----|
G :---------------0-----------|--------------2-----------|--------------0-----------|-------2------------|
C :---------------------------|--------------------------|--------------------------|--------------------|
      Went out on a limb,    Gone too far    Broke down at the side of the road          
        Stranded at the outskirts and sun's creepin' up

    T     T     T     T       T     T      T     T       T     T      T     T       T    
T     T     T
c :---4-4-4-4-4---2-2-2-2-2-|---0-0-0------------0-----|---4-4-4-4-4----2-2-2-2-2-|-----------0---------------|
g :---0-0-0-0-0---0-0-0-0-0-|---0-0-0-0--------0---0---|---0-0-0-0-0----0-0-0-0-0-|---0-----0-----------------|
E :-------3-----------1-----|-------0---0----1-------1-|-------3------------1-----|-----0-1-------------------|
C :-0-----------------------|-0------------------------|-0------------------------|-0-----------2/4---4\2p0---|
G :-------------0-----------|--------------2-----------|--------------0-----------|-------2-----------------0-|
C :-------------------------|--------------------------|--------------------------|---------------------------|
      Baby's in the..     Still fast asleep      Dreamin' of better    Days              
    I don't want to...    but you're all I...    to


    T     T      T     T       T       T       T     T       T     T      T     T       T      T       T     T
c :-------0------------0-----|-------0-----0-------0-------|-------0------------0-----|-------0-----0-------0-------|
g :-------0----------0-0-----|-----0---------7---0-------0-|-------0----------0-0-----|-----0---------9---0-------0-|
E :-----5-5--------4---4-----|---------5/7-----8-------8---|-----5-5--------4---4-----|---------5/7-----8-------8---|
C :---0---0------5-----5-----|-2/4-------------------9-----|---0---0------5-----5-----|-2/4-------------------9-----|
G :--------------------------|-----------------------------|--------------------------|-----------------------------|
C :-5------------------------|---------5/7-----9-----------|-5------------------------|---------5/7-----9-----------|

       What do you say...  ..all gone away         baby, I       didn't mean to hurt you 
            truth...        will tear you apart          no matter...           
it


                               Schluss-Akkord
    T      T      T     T       T     T     T      T         T     T     T     T       T 
   T      T     T
c :------0-----0------0-------|-----------0-0--------------|---4-4-4-4-4---2-2-2-2-2-|-------0------------0-----|
g :----0-----0------0---------|---------0---0--------------|---0-0-0-0-0---0-0-0-0-0-|-----0---0--------0---0---|
E :-10-----8------7-----5-3---|-----0h1-----1--------------|-------3-----------1-----|---1-------0----1-------0-|
C :-11-----9------7-----5---5-|---2---------2--------------|-0-----------------------|--------------------------|
G :---------------------------|-0-----------0--------------|-------------0-----------|-2------------2-----------|
C :-11-----9------7-----5-----|----------------------------|-------------------------|--------------------------|
    It never      rains  when you want it to                          you humble me Lord 
                     you humble me    Lord

    T     T     T     T       T     T     T     T                T     T     T       T   
 T      T     T
c :-------------------------|-----------0-0-------|------------|---4-4-4-4-4---2-2-2-2-2-|-------0------------0-----|
g :-------0-----------0-----|---------0---0-------|------------|---0-0-0-0-0---0-0-0-0-0-|-----0---0--------0---0---|
E :-----5---5-------3---3---|-----0h1-----1-------|------------|-------3-----------1-----|---1-------0----1-------0-|
C :---5-------5---4-------4-|---2---------2-------|------------|-0-----------------------|--------------------------|
G :-------------------------|-------------0-------|------------|-------------0-----------|-2------------2-----------|
C :-5-----------4-----------|-2-------------------|------------|-------------------------|--------------------------|
   I'm on       my         knies    and           empty,                                 
     you humble me Lord                      you humble me    Lord

    T     T     T     T       T     T     T     T
c :-------------------------|-----------0-0-------|
g :-------0-----------0-----|---------0---0-------|
E :-----5---5-------3---3---|-----0h1-----1-------|
C :---5-------5---4-------4-|---2---------2-------|
G :-------------------------|-------------0-------|
C :-5-----------4-----------|-2-------------------|
   so  please,             please,                forgive me,                         
humble me Lord

              Interlude:
    T     T      T     T       T     T      T     T       T     T      T     T
c :---4-4-4-4-4----2-2-2-2-2-|---0-0-0------------0-----|---4-4-4-4-4----2-2-2-2-2-|
g :---0-0-0-0-0----0-0-0-0-0-|---0-0-0-0--------0---0---|---0-0-0-0-0----0-0-0-0-0-|
E :-------3------------1-----|-------0---0----1-------1-|-------3------------1-----|
C :-0------------------------|-0------------------------|-0------------------------|
G :--------------0-----------|--------------2-----------|--------------0-----------|
C :--------------------------|--------------------------|--------------------------|


    T     T      T           T
c :-----------0--------------------------|
g :---0-----0----------------------------|
E :-----0-1------------------------------|
C :-0------------2/4-2p0-----2/4-2p0-----|
G :-------2--------------2p0---------2p0-|
C :--------------------------------------|
Tap to rate this tab
 
# A B C D E F G H I J K L M N O P Q R S T U V W X Y Z