Song name
# A B C D E F G H I J K L M N O P Q R S T U V W X Y Z

Norah Jones - Not My Friend tab

Capo 2nd Fret

Intro

e|--------------------------------------------------------------|
B|-----0-------0-------0--------0--------0-------0-------0------|
G|---1---1---1---1---1---1----1---1----1---1---1---1---1---1----|
D|-2-------2-------1-------1---------2-------2-------1-------1--|
A|--------------------------------------------------------------|
E|--------------------------------------------------------------|

Verse

           Help me breathe...
           Help me believe...
           You seem really glad, 
     that i am sad...
e|--------------------------------------------------------------|
B|-----0-------0-------0--------0--------0-------0-------0------|
G|---1---1---1---1---1---1----1---1----1---1---1---1---1---1----| Repeat(4)
D|-2-------2-------1-------1---------2-------2-------1-------1--|
A|--------------------------------------------------------------|
E|--------------------------------------------------------------|

Chorus

  You are not my friend...
  I cannot pretend that you are...
e|-----0-------0-------0--------0--------0-------0-------0------|
B|---2---2---2---2---2---2----2---2----2---2---2---2---2---2----|
G|-2-------2-------1-------1---------2-------2-------1-------1--| Repeat(2)
D|--------------------------------------------------------------|
A|--------------------------------------------------------------|
E|--------------------------------------------------------------|

e|--------------------------------------------------------------|
B|-----0-------0-------0--------0--------0-------0-------0------|
G|---1---1---1---1---1---1----1---1----1---1---1---1---1---1----|
D|-2-------2-------1-------1---------2-------2-------1-------1--|
A|--------------------------------------------------------------|
E|--------------------------------------------------------------|


Verse 2

          You made it sting...
          Your voice is ringing...
          Just like the boys who laughed at me in school...

e|--------------------------------------------------------------|
B|-----0-------0-------0--------0--------0-------0-------0------|
G|---1---1---1---1---1---1----1---1----1---1---1---1---1---1----| Repeat(4)
D|-2-------2-------1-------1---------2-------2-------1-------1--|
A|--------------------------------------------------------------|
E|--------------------------------------------------------------|

Chorus

   You are not my friend...
   I cannot pretend anymore...

e|-----0-------0-------0--------0--------0-------0-------0------|
B|---2---2---2---2---2---2----2---2----2---2---2---2---2---2----|
G|-2-------2-------1-------1---------2-------2-------1-------1--| Repeat (2)
D|--------------------------------------------------------------|
A|--------------------------------------------------------------|
E|--------------------------------------------------------------|

Bridge

e|--------------------------------------------------------------|
B|-----0-------0-------0--------0--------0-------0-------0------|
G|---1---1---1---1---1---1----1---1----1---1---1---1---1---1----| Repeat(2)
D|-2-------2-------1-------1---------2-------2-------1-------1--|
A|--------------------------------------------------------------|
E|--------------------------------------------------------------|

   You found a place...
   No one should ever go...

e|-----0-------0-------0--------0--------0-------0-------0------|
B|---2---2---2---2---2---2----2---2----2---2---2---2---2---2----|
G|-2-------2-------1-------1---------2-------2-------1-------1--| Repeat (2)
D|--------------------------------------------------------------|
A|--------------------------------------------------------------|
E|--------------------------------------------------------------|

e|--------------------------------------------------------------|
B|-----0-------0-------0--------0--------0-------0-------0------|
G|---1---1---1---1---1---1----1---1----1---1---1---1---1---1----| Repeat(2)
D|-2-------2-------1-------1---------2-------2-------1-------1--|
A|--------------------------------------------------------------|
E|--------------------------------------------------------------| 


Outro

           I'll be ok...
           'Cause when i back away...
e|--------------------------------------------------------------|
B|-----0-------0-------0--------0--------0-------0-------0------|
G|---1---1---1---1---1---1----1---1----1---1---1---1---1---1----| Repeat(2)
D|-2-------2-------1-------1---------2-------2-------1-------1--|
A|--------------------------------------------------------------|
E|--------------------------------------------------------------|


           I'm gonna keep the handle of your gun in sight...
e|--------------------------------------------------------------|
B|-----0-------0-------0--------0--------0-------0-------0------|
G|---1---1---1---1---1---1----1---1----1---1---1---1---1---1----|
D|-2-------2-------1-------1---------2-------2-------1-------1--|
A|--------------------------------------------------------------|
E|--------------------------------------------------------------|

e|---------------------------------------------------0----------|
B|-----0-------0-------0--------0--------0-------0--------------|
G|---1---1---1---1---1---1----1---1----1---1---1---1------------|
D|-2-------2-------1-------1---------2-------2-------2----------|
A|--------------------------------------------------------------|
E|--------------------------------------------------------------|
Tap to rate this tab
# A B C D E F G H I J K L M N O P Q R S T U V W X Y Z