Song name
# A B C D E F G H I J K L M N O P Q R S T U V W X Y Z

Norbert Kristof - Blood Of A Broken Man tab

Capo 4

Tab:

Intro
        Em                                                   C
e|-----------------|      e|-----------------|     e|-----------------| 
B|---------0-------|      B|---------3-------|     B|---------1-------|
G|-----0-----0---0-|      G|-----0-----0---0-|     G|-----0-----0---0-|
D|-------2-----2---| X4   D|---2---2-----2---| X3  D|---2---2-----2---| x1
A|--2--------------|      A|-3---------------|     A|-3---------------|
E|-0---------------|      E|-----------------|     E|-----------------|

        Em
e|-----------------|      e|-----------------|      
B|---------0-------|      B|---------3-------|     
G|-----0-----0---0-|      G|-----0-----0---0-|     
D|-------2-----2---| X4   D|---2---2-----2---| X3  
A|--2--------------|      A|-3---------------|     
E|-0---------------|      E|-----------------|     


Verse:
          C
e|-----------------| 
B|---------1-------|
G|-----0-----0---0-|
D|---2---2-----2---| x1
A|-3---------------|
E|-----------------|
    I am your...                       


        Em
e|-----------------|      e|-----------------|     e|-----------------| 
B|---------0-------|      B|---------3-------|     B|---------1-------|
G|-----0-----0---0-|      G|-----0-----0---0-|     G|-----0-----0---0-|
D|-------2-----2---| X4   D|---2---2-----2---| X3  D|---2---2-----2---| x1
A|--2--------------|      A|-3---------------|     A|-3---------------|
E|-0---------------|      E|-----------------|     E|-----------------|
  ...shield now
  a gift that you..          ...will return          with peace in your...


        Em
e|-----------------|      e|-----------------|     
B|---------0-------|      B|---------3-------|     
G|-----0-----0---0-|      G|-----0-----0---0-|    
D|-------2-----2---| X4   D|---2---2-----2---| X3  
A|--2--------------|      A|-3---------------|     
E|-0---------------|      E|-----------------|     
   ...old eyes
   a grown man...            ...to another


Chorus:

         C
e|-----------------| 
B|---------1-------|
G|-----0-----0---0-|
D|---2---2-----2---| x1
A|-3---------------|
E|-----------------|
   The water is...

        Em                                                   C
e|-----------------|      e|-----------------|     e|-----------------| 
B|---------0-------|      B|---------3-------|     B|---------1-------|
G|-----0-----0---0-|      G|-----0-----0---0-|     G|-----0-----0---0-|
D|-------2-----2---| X4   D|---2---2-----2---| X3  D|---2---2-----2---| x1
A|--2--------------|      A|-3---------------|     A|-3---------------|
E|-0---------------|      E|-----------------|     E|-----------------|
  ...now air
  that's all...             ... I know                 I'm your...

        Em                                         
e|-----------------|      e|-----------------|     
B|---------0-------|      B|---------3-------|     
G|-----0-----0---0-|      G|-----0-----0---0-|     
D|-------2-----2---| X4   D|---2---2-----2---| X3  
A|--2--------------|      A|-3---------------|     
E|-0---------------|      E|-----------------|     
  ...own blood
  that's all i know.

(And so on in the second verse and the second chorus.)

no longer a white man
collapsing the you in me
I tell you we born free
I am your blood, your sea

I dream how you rest now
that's all I know
I dream how you leave now
that's all I know



I hope it can be understanded... :)
Tap to rate this tab
 
# A B C D E F G H I J K L M N O P Q R S T U V W X Y Z