Song name
# A B C D E F G H I J K L M N O P Q R S T U V W X Y Z

Nordman - Vandraren tab

intro

E------------------------------|
B------------------9-----------|
G---7-6---7-9-11-9---9-11------|
D-9-----9----------------------|
A------------------------------|
E------------------------------|

E------------------------------|
B------------------------------|
G-7-11-9-6-9-7-------6---------|
D--------------9-7-9---4-------|
A------------------------------|
E------------------------------|

E------------------------------|
B------------------9-----------|
G---7-6---7-9-11-9---9-11------|
D-9-----9----------------------|
A------------------------------|
E------------------------------|

E------------------------------|
B-12---------------------------|
G----11-9-7-11-9-6-------------|
D------------------9-----------|
A------------------------------|
E------------------------------|

vers

E------------------------------|
B------------------------------|
G---11-11-11-9-7-11-7-6--------|
D-9----------------------------|
A------------------------------|
E------------------------------|

E------------------------------|
B-------7----------------------|
G-4-6-7---6-7-4-2--------------|
D------------------------------|
A------------------------------|
E------------------------------|

E------------------------------|
B------------------------------|
G---11-11-11-9-7-11-7-6--------|
D-9----------------------------|
A------------------------------|
E------------------------------|

E------------------------------|
B-------7-5-3-2-0--------------|
G-4-6-7------------------------|
D------------------------------|
A------------------------------|
E------------------------------|

E------------------------------|
B------------------------------|
G---11-11-11-9-7-11-7-6--------|
D-9----------------------------|
A------------------------------|
E------------------------------|

E------------------------------|
B-------7----------------------|
G-4-6-7---6-7-4-2--------------|
D------------------------------|
A------------------------------|
E------------------------------|

E------------------------------|
B------------------------------|
G---11-11-11-9-7-11-7-6--------|
D-9----------------------------|
A------------------------------|
E------------------------------|

E------------------------------|
B-------7-5-3-2-0--------------|
G-4-6-7------------------------|
D------------------------------|
A------------------------------|
E------------------------------|

Chorus

E-------------------------------|
B-------------------------------|
G-11-14-12-11-9-7-11-7-7-7-11-9-|
D-------------------------------|
A-------------------------------|
E-------------------------------|

E------------------------------|
B------------------------------|
G-7-9--------------------------|
D------------------------------|
A------------------------------|
E------------------------------|

E------------------------------|
B------------------------------|
G-11-14-12-11-9-7-11-6-7-9-4-6-|
D------------------------------|
A------------------------------|
E------------------------------|

E------------------------------|
B------------------------------|
G-7-6-4-6-2-4------------------|
D------------------------------|
A------------------------------|
E------------------------------|

//Lordhelmet
Tap to rate this tab
 
# A B C D E F G H I J K L M N O P Q R S T U V W X Y Z