Song name
# A B C D E F G H I J K L M N O P Q R S T U V W X Y Z

Nore - Lapdance tab

N.O.R.E - Lapdance
Tabbed By: Zach (Ibanez3476@hotmail.com)

Yes, I know this is rap but I figured this out while playing my guitar
and BMX XXX at the same time! :-) cool stuff!

Standard Tuning

Main Riff:

e:----------------
B:---------------- 
G:----------------      x3
D:-3-2-4-4-5-5-5-5
A:-3-2-4-4-5-5-5-5
E:-3-3-4-4-5-5-5-5

e:----------------
B:----------------
G:----------------
D:-2-2-2-2-2-2-2-2 <- On ur 3rd round of the main riff play this
A:-2-2-2-2-2-2-2-2
E:-0-0-0-0-0-0-0-0

Repeat throughout most of the song, just listen to get it
Tap to rate this tab
# A B C D E F G H I J K L M N O P Q R S T U V W X Y Z