Song name
# A B C D E F G H I J K L M N O P Q R S T U V W X Y Z

Norma Jean - Self Employed Chemist tab

                         Self-Employed Chemist             


                              Norma Jean

Verse 1

       E   E   E   E   E   E   E   E      E   E   E   E   E   E   E   E   
D||-----------------------------------|----------------------------------|
A||-----------------------------------|----------------------------------|
F||-----------------------------------|----------------------------------|
C||----8---8---8---8---8---8---8---8--|--10--10--10--10--10--10--10--10--|
G||---10--10--10--10--10--10--10--10--|--10--10--10--10--10--10--10--10--|
C||-----------------------------------|----------------------------------|

  E  E  E  E  E  E  E  E     E  E  E  E  E    E   Q      
--------------------------|-----------------------------|
--------------------------|-----------------------------|
--------------------------|-----------------------------|
--8--8--8--8--8--8--8--8--|--8--8--8--8--8h--10p--8~----|
--9--9--9--9--9--9--9--9--|--8--8--8--8--8h--10p--8~----|
--------------------------|--8--8--8--8--8h--10p--8~----|



Verse 2

  Q    Q    Q    Q       Q    Q    Q    Q     
----------------------|----------------------|
----------------------|----------------------|
----------------------|----------------------|
--1----1----1----1----|--1----1----1----1----|
--1----1----1----1----|--1----1----1----1----|
--1----1----1----1----|--1----1----1----1----|

  E  E  E  E  E  E  E  E     E  E  E  E  E  E  E  E   
--------------------------|--------------------------|
--------------------------|--------------------------|
--------------------------|--------------------------|
--0--0--0--0--0--0--0--0--|--3--3--3--3--3--3--3--3--|
--0--0--0--0--0--0--0--0--|--3--3--3--3--3--3--3--3--|
--0--0--0--0--0--0--0--0--|--3--3--3--3--3--3--3--3--|


Verse 1 x1


Verse 2 x1


Verse 3 x2

   E   E   E   E  E  E   E   E      E   E  E  E  E  E  E  E   
--------------------------------|----------------------------|
--------------------------------|----------------------------|
--------------------------------|----------------------------|
---8---8---8---8--x--x---8---8--|---8---8--x--x--7--7--7--7--|
--10--10--10--10--x--x--10--10--|--10--10--x--x--8--8--8--8--|
--------------------------------|----------------------------|


Verse 4 

  E  E  E  E  E  E  E  E     E  E  E  E  E  E  E  E   
--------------------------|--------------------------|
--------------------------|--------------------------|
--------------------------|--------------------------|
--1--1--1--1--1--1--1--1--|--1--1--1--1--1--1--1--1--|
--1--1--1--1--1--1--1--1--|--1--1--1--1--1--1--1--1--|
--1--1--1--1--1--1--1--1--|--1--1--1--1--1--1--1--1--|

  E  E  E  E  E  E  E  E     E  E  E  E  E  E  E  E   
--------------------------|--------------------------|
--------------------------|--------------------------|
--------------------------|--------------------------|
--3--3--3--3--3--3--3--3--|--4--4--4--4--4--4--4--4--|
--3--3--3--3--3--3--3--3--|--4--4--4--4--4--4--4--4--|
--3--3--3--3--3--3--3--3--|--4--4--4--4--4--4--4--4--|


Verse 5

  Q     Q    Q     Q       Q     Q    Q     Q     
------------------------|------------------------|
------------------------|------------------------|
------------------------|------------------------|
--------8----------8----|--------8----------8----|
-------10---------10----|-------10---------10----|
------------------------|------------------------|

  Q    Q    Q    Q       E  E  E  E  E    E   Q      
----------------------|-----------------------------|
----------------------|-----------------------------|
----------------------|-----------------------------|
-------8---------8----|--8--8--8--8--8h--10p--8~----|
-------9---------9----|--8--8--8--8--8h--10p--8~----|
----------------------|--8--8--8--8--8h--10p--8~----|


Verse 2


Verse 1


Verse 2


Verse 3 x2


Verse 4


Chorus

  E  E  E  E  E  E  E  E     E  E  E  E  E  E  E  E   
--------------------------|--------------------------|
--------------4--4--4--4--|--3--3--3--3--------------|
--3--3--3--3--3--3--3--3--|--3--3--3--3--3--3--3--3--|
--1--1--1--1--1--1--1--1--|--1--1--1--1--1--1--1--1--|
--------------------------|--------------------------|
--------------------------|--------------------------|


  E  E  E  E  E  E  E  E     E  E  E  E  E  E  E  E   
--------------------------|--------------------------|
--------------8--8--8--8--|--6--6--6--6--8--8--8--8--|
--7--7--7--7--7--7--7--7--|--7--7--7--7--7--7--7--7--|
--5--5--5--5--5--5--5--5--|--5--5--5--5--5--5--5--5--|
--------------------------|--------------------------|
--------------------------|--------------------------|


  E  E  E  E  E  E  E  E     E  E  E  E  E  E  E  E   
--------------------------|--------------------------|
--------------4--4--4--4--|--3--3--3--3--------------|
--3--3--3--3--3--3--3--3--|--3--3--3--3--3--3--3--3--|
--1--1--1--1--1--1--1--1--|--1--1--1--1--1--1--1--1--|
--------------------------|--------------------------|
--------------------------|--------------------------|


  Q    Q    Q     Q        E   E   E   E   E   E   E   E   
-----------------------|--10--10--10--10--10--10--10--10--|
-----------------10----|--10--10--10--10--10--10--10--10--|
------------7----------|----------------------------------|
--0----7---------------|----------------------------------|
-----------------------|----------------------------------|
-----------------------|----------------------------------|


Short Verse 1

   E   E   E   E   E   E   E   E     E  E  E  E  E    E   Q      
----------------------------------|-----------------------------|
----------------------------------|-----------------------------|
----------------------------------|-----------------------------|
---8---8---8---8---8---8---8---8--|--8--8--8--8--8h--10p--8~----|
--10--10--10--10--10--10--10--10--|--8--8--8--8--8h--10p--8~----|
----------------------------------|--8--8--8--8--8h--10p--8~----|


Verse 2


Verse 1


Verse 2


Verse 3 x2


Verse 4


Chorus x2


Bridge x8

  E  E  E  E  E  E  E  E     E  E  E  E   E   E   E   E   
--------------------------|--------------10--10--10--10--|
--8--8--8--8--8--8--8--8--|--7--7--7--7------------------|
--------------------------|------------------------------|
--------------------------|------------------------------|
--------------------------|------------------------------|
--------------------------|------------------------------|


Bridge x4

  E  E  E  E  E  E  E  E     E  E  E  E   E   E   E   E   
--------------------------|--------------10--10--10--10--|
--8--8--8--8--x--x--8--8--|--8--8--x--x---6---6---6---6--|
--7--7--7--7--x--x--7--7--|--7--7--x--x------------------|
--------------------------|------------------------------|
--------------------------|------------------------------|
--------------------------|------------------------------|


Chorus x2


Outro x2

   E   E   E   E  E  E   E   E      E   E  E  E  E  E  Q     
--------------------------------|---------------------------|
--------------------------------|---------------------------|
--------------------------------|---------------------------|
---8---8---8---8--x--x---8---8--|---8---8--x--x--7--7-------|
--10--10--10--10--x--x--10--10--|--10--10--x--x--8--8-------|
--------------------------------|---------------------------|

                        PM    
   E   E   E   E  E  E  Q       Q    Q     H         
-----------------------------|----------------------|
-----------------------------|----------------------|
-----------------------------|----------------------|
---8---8---8---8--x--x-------|----------------------|
--10--10--10--10--x--x--0----|--1----3~----0--------|
------------------------0----|--1----3~----0--------|



Duration Legend
---------------
W - whole
H - half
Q - quarter
E - 8th
S - 16th
T - 32nd
X - 64th
. - note dotted
|-n-|  - n-tuplets


Tablature Legend
----------------
L - tied note
x - dead note
g - grace note
(n) - ghost note
> - accentuded note
NH - natural harmonic
AH - artificial harmonic
TH - tapped harmonic
SH - semi harmonic
PH - pitch harmonic
h - hammer on
p - pull off
b - bend
br - bendRelease
pb - preBend
pbr - preBendRelease
brb - bendReleaseBend
\n/ - tremolo bar dip
\n - tremolo bar dive
-/n - tremolo bar Release up
/n\ - tremolo bar inverted dip
/n - tremolo bar return
-\n - tremolo bar Release down
S - shift slide
s - legato slide
/ -  slide into from below or out of upwards
\ -  slide into from above or out of downwards
~ - vibrato
W - wide vibrato
tr - trill
TP - tremolo picking
T - tapping
S - slap
P - pop
< - fade in
^ - brush up
v - brush down
Tap to rate this tab
# A B C D E F G H I J K L M N O P Q R S T U V W X Y Z