Song name
# A B C D E F G H I J K L M N O P Q R S T U V W X Y Z

Norma Jean - Surrender Your Sons tab

----------------------------------------------------------------------------
			     Surrender Your Sons - Norma Jean
----------------------------------------------------------------------------
Tabbed by: Klee1688

I think there are 3 guitars in this song. I've figured out the parts that stand out the 
for 2 guitars.

Tuning: Db Ab Db Gb Bb Eb

Intro
eb|-------------------------------------------------------------------|
Bb|-------------------------------------------------------------------|
Gb|-777777--555555--101010101010--999999--15151515--12-14141414141414-|
Db|-555555--333333--8-8-8-8-8-8---777777--13131313--10-12121212121212-|
Ab|-------------------------------------------------------------------|
Db|-------------------------------------------------------------------|

eb|---------------------------------|
Bb|-15-15^-15-15-15^-15-15-15^-xx---|
Gb|-14-14^-14-14-14^-14-14-14^-xx---|    x4
Db|-12-12^-12-12-12^-12-12-12^-xx---|
Ab|---------------------------------|
Db|---------------------------------|

                                      4th time end with
eb|-------------------------------|   |--------------|
Bb|-------------------------------|   |--------------|
Gb|-------------------------------|x4 |--------------|
Db|-------------------------------|   |--------------|
Ab|-0---------0---------0-----00--|   |-----0~-------|
Db|-0-12^-12^-0-12^-12^-0-12^-00--|   |-----0~-------|
 PM                           ..

verse     guitar 1                     guitar 2
    "your pale skin..."          "don't touch me"
eb|----------------------|    |----------------------------------|
Bb|----------------------|    |----------------------------------|
Gb|-9-\-7-/-9------------|x2  |----------------------------------|
Db|-x-\-x-/-x------------|    |----------------------------------|
Ab|-7-\-5-/-7------------|    |-------00-00-0--00-00-0-----------|
Db|----------------------|    |-------00-00-0--00-00-0-----------|
PM                                    .. .. .  .. .. .

Chorus    "hello my good old friend"
eb|-----------------------------------------------------------|
Bb|-----------------------------------------------------------|
Gb|-----------------------------------------------------------|
Db|-----------------------------------------------------------|  x2
Ab|-----------------------------------------------------------|
Db|-12121212121212121212121212121212-151515-4444444444444444--|

    "but afterwards..."
eb|------------------------------------|----------------------------|
Bb|------------------------------------|----------------------------|
Gb|------------------------------------|----------------------------|x4
Db|--5-5-5~--8-8-8~--5-5-5~--8-8-8~----|----------------------------|
Ab|--3-3-3~--5-5-5~--3-3-3~--5-5-5~----|-0--------0--------0-----00-|
Db|--3-3-3~--5-5-5~--3-3-3~--5-5-5~----|-0-12^12^-0-12^12^-0-12^-00-|
 PM                                                              ..

eb|-----------------------------|
Bb|-----------------------------|
Gb|------7^---7^----7^---7^-----|
Db|----7----7^----7----7^-------|
Ab|--5----5-----5----5----------|
Db|-----------------------------|

verse 2
 "you know that feeling"
guitar 1
eb|-------------|    |--------------------------------------------------|
Bb|-------------|    |--------------------------------------------------|
Gb|--9-\-7-/-9--| x1 |--------------------------------------------------|
Db|--x-\-x-/-x--|    |-------------------------------------0-0-0-0-0-0--|
Ab|--7-\-5-/-7--|    |-00-00-0--00-00-0--00-00-0--00-00-0--0-0-0-0-0-0--|
Db|-------------|    |-00-00-0--00-00-0--00-00-0--00-00-0--0-0-0-0-0-0--|
                       .. .. .  .. .. .  .. .. .  .. .. .

guitar 2
eb|-------------------------------------------------------------------|
Bb|-------------------------------------------------------------------|
Gb|-777777--555555--101010101010--999999--15151515--12-14141414141414-|
Db|-555555--333333--8-8-8-8-8-8---777777--13131313--10-12121212121212-|
Ab|-------------------------------------------------------------------|
Db|-------------------------------------------------------------------|

eb|------------------------------------|
Bb|-15-15^-15-15-15^-15-15-15^-xx------|
Gb|-14-14^-14-14-14^-14-14-14^-xx------|  x1
Db|-12-12^-12-12-12^-12-12-12^-xx------|
Ab|--------------------------------000-|
Db|--------------------------------000-|

chorus

eb|-----------------------------------------------------------|
Bb|-----------------------------------------------------------|
Gb|-----------------------------------------------------------|
Db|-----------------------------------------------------------|  x4
Ab|-----------------------------------------------------------|
Db|-12121212121212121212121212121212-151515-4444444444444444--|

 "but afterwards...my mouth will be filled with gravel"
eb|------------------------------------------------|
Bb|------------------------------------------------|
Gb|------------------------------------------------|
Db|--5-5-5~--8-8-8~--5-5-5~--8-8-8~--5-5-5~--8-8-8-|
Ab|--3-3-3~--5-5-5~--3-3-3~--5-5-5~--3-3-3~--5-5-5-|
Db|--3-3-3~--5-5-5~--3-3-3~--5-5-5~--3-3-3~--5-5-5-|


eb|----------|------------------------------------------------------|
Bb|----------|------------------------------------------------------|
Gb|----------|--------121212121212-11------------7^-121212121212-11-|
Db|-88888888-|--------x-x-x-x-x-x--x--888888-0~--x--x-x-x-x-x-x--x--| x2
Ab|-88888888-|-0-12^--101010101010-9--888888-0~--5^-101010101010-9--|
Db|-88888888-|-0-12^------------------888888-0~---------------------|

eb|----------------------|
Bb|----------------------|
Gb|--11-11-11-\-9-9-\-7--|
Db|--9--9--9--\-7-7-\-5--|
Db|----------------------|

   guitar 1             not sure about this part
eb|-----------------------------------------------|
Bb|-----------------------------------------------|
Gb|-----------------------------------------------|
Db|-----------------------------------------------|
Ab|-----------------------------------------------|
Db|--121212121212---8888888888--------------------|

   guitar 2          figure out strumming pattern
eb|-------------------------------------------------------------------|
Bb|------------------------------------------------------------15-15^-|
Gb|-------------------------------------------151515-10-141414-14-14^-|
Db|-1212121212-10101010-1515151515-1414141414-131313-12-121212-12-12^-|
Ab|-------------------------------------------------------------------|
Db|-------------------------------------------------------------------|

chorus
eb|-----------------------------------------------------------|
Bb|-----------------------------------------------------------|
Gb|-----------------------------------------------------------|
Db|-----------------------------------------------------------|  x2
Ab|-----------------------------------------------------------|
Db|-12121212121212121212121212121212-151515-4444444444444444--|


    "i swear i will find my way back"
eb|--------------------------------------------------------------------|
Bb|--------------------------------------------------------------------|
Gb|--------------------------------------------------------------------|
Db|-------------------------------101010101010-9999999-----------------|x2
Ab|-12121212121212-10101010101010-8-8-8-8-8-8--7777777--88888-0-77777--|
Db|-12121212121212-10101010101010-----------------------88888-0-77777--|

eb|-------------------------------|   |---------------------------------|
Bb|-------------------------------|   |--15-15^--15-15--15^--15-15-15\\-|
Gb|-------------------------------|x4 |--14-14^--14-14--14^--14-14-14\\-|
Db|-------------------------------|   |--12-12^--12-12--12^--12-12-12\\-|
Ab|-0---------0---------0-----00--|   |---------------------------------|
Db|-0-12^-12^-0-12^-12^-0-12^-00--|   |---------------------------------|
 PM                           ..

END


| /  slide up
| \  slide down
| h  hammer-on
| p  pull-off
| ~  vibrato
| +  harmonic
| x  Mute note
==========================================================================
Tap to rate this tab
 
# A B C D E F G H I J K L M N O P Q R S T U V W X Y Z