Guitaretab - guitar tabs
Song name
# A B C D E F G H I J K L M N O P Q R S T U V W X Y Z

Norma Jean - Death Of The Anti Mother tab

Norma Jean
Vs. the Anti Mother
Death of the Anti Mother (Intro)

Tab by: Jadran0009

Sorry guys for this MAJOR Tab update! I was stupid when I made this tab, and I found a 
that sounds Loads much better!

Hey Everyone...I am completly new to this and thought I might give it a try. I wanted to find
out how to play this song on guitar, and there were no tabs anywhere on the internet
I could
find yet, since it is a new album " Vs. the Anti Mother ".
I am not even really that good at guitar, but I thought this sounded very close to the intro.

The tunning might be a little off since I pretty much played it by ear from an online
tuner giving me the pitch.

Tunning: B,E,A,F,_,_

...The other 2 I don't know considering you do not use them in the way I play the intro.
    P.S. The B is a lower pitch then a drop D.

[ Tab from: http://www.guitaretab.com/n/norma-jean/115864.html ]
|------------------------------------------------------------------------|
|------------------------------------------------------------------------|
|-----------------------------------------------0------------------------|
|-------9----7----5-------------9----7--------5---5---5-----9/12---7---5-|
|-------10---8----7-------------10---8------7-------7-------10/13--8---7-|
|-0--------------0-----------0------------0-------------0-------------0--|
    (00:00-00:17)

|----------------------------------|
|----------------------------------|
|---------------------0------------| X3
|-------9----7------5---5---5------|      (When you repeat, do not play the
|-------10---8----7-------7--------|       first open E string again.)
|-0-------------0-------------0----|
    (00:19-00:32)

|-----------------------------|
|-----------------------------|
|----------------0------------|
|-9/12---7-----5---5---5------|
|-10/13--8---7-------7--------|
|----------0-------------0----|
    (00:32-00:38)

Thanx for checking out my very first tab everyone! I hope it was very clear and made
and I hope you enjoed it! And once again, sorry, I changed the entire tab for those of 
who have already viewed this tab. =/

Tab by: Jadran0009

Thanx to Ultimate-Guitar.com!
Related for Death Of The Anti Mother tab
×
Best way to learn
"Death Of The Anti Mother"