Song name
# A B C D E F G H I J K L M N O P Q R S T U V W X Y Z

Norma Jean - Robots 3 Humans 0 tab

------------------------------------------------------------------------
		                   Robots 3 Humans 0 - Norma Jean
------------------------------------------------------------------------
Tabbed by: Kristyn Lee

It was hard to work out the strumming patterns. Ive figured out most of
 the notes but you'll have to listen for the timing yourselves. 

Tuning: Half a step down

Intro/Verse
eb|-------------------------------------------------------------------|
Bb|---15-----------15----------15-----------15------------------15----|
Gb|---14-x4--------14-x4-------14-x4--------14-x4---------------14-x4-|
Db|---12-----------12----------12-----------12------------------12----|
Ab|-0-------0--0-0---------5-0-------0--0-0---------5-----0-0-0-------|
Db|-0-------0--0-0-------3---0-------0--0-0-------3---3/8-0-0-0-------|

eb|-------------------------------------------------------------------|
Bb|-------15------------15--------------------------------------------|
Gb|-------14-x4---------14-x4-----------------------------------------|
Db|-------12------------12--------------------------------------------|
Ab|-----0--------0--0-0-------------88--------------------------------|
Db|-3/8-0--------0--0-0--------3/8--88--------------------------------|
                                    ..

  0:52 Chorus
eb|-------------------------------------------------------------------|
Bb|-------------------------------------------------------------------|
Gb|-----------9/10101010101010----------------------------------------|
Db|-----------x-x-x-x-x-x-x-x-----------------------------------------|
Ab|-00000000--7/8-8-8-8-8-8-8--7h8888888-7h8888888--------------------|
Db|-00000000-------------------7h8888888-7h8888888--------------------|


eb|-------------------------------------------------------------------|
Bb|-------------------------------------------------------------------|
Gb|-----------9/10101010101010----------------------------------------|
Db|-----------x-x-x-x-x-x-x-x-----------------------------------------|
Ab|-00000000--7/8-8-8-8-8-8-8--7h8888888-7/101010101010\7-------------|
Db|-00000000-------------------7h8888888-7/101010101010\7-------------|

  1:06  "can you help me..."    
eb|-----------------------------------------------------------------|
Bb|-----------------------------------------------------------------|
Gb|-----------------------------------------------------------------|
Db|-----------------------------------------------------------------|x2
Ab|-0-0--5----------------------------------------------------------|
Db|-0-0----0-3h5-33333333-8888888888888888--------------------------|

1:20
eb|-----------------------------------------------------------------|
Bb|---15-----------15------15------15-----------15------------------|
Gb|---14-x4--------14-x4---14-x2---14-x4--------14-x8---------------|
Db|---12-----------12------12------12-----------12------------------|
Ab|-0-------0--0-0-------0-------0-------0--0-0---------------------|
Db|-0-------0--0-0-------0-------0-------0--0-0---------------------|


 2nd verse           the timing is very wrong
eb|----------------------------------------------------------------|
Bb|----------------------------------------------------------------|
Gb|----------------------------------------------------------------|
Db|----------------------------------------------------------------|
Ab|-12\\\-0-0-12\\\-0-0-0-12-12-12-12----3-12\\-0-0-0-0-12-3/8-0-0-|
Db|-12\\\-0-0-12\\\-0-0-0-12-12-12-12--5---12\\-0-0-0-0-12-3/8-0-0-|
         . .       . . .                       . . . .

1:57           "it's over..."
eb|-------15-17----------------------------------------------------|
Bb|-15-13--------------15h17-13h15-----15----13----15----13--------|
Gb|--------------14h16--------------14----14----14----14-----------|
Db|----------------------------------------------------------------|
Ab|----------------------------------------------------------------|
Db|----------------------------------------------------------------|

 Then play the chorus again. I haven't figured out the bridge and outro.  


| .  palm mute
| /  slide up
| \  slide down
| h  hammer-on
| p  pull-off
| ~  vibrato
| +  harmonic
| x  Mute note
===================================================================
Tap to rate this tab
# A B C D E F G H I J K L M N O P Q R S T U V W X Y Z