Song name
# A B C D E F G H I J K L M N O P Q R S T U V W X Y Z

Norma Jean - A Tempermental Widower tab

Help us improve GuitareTab! Take a short survey!
#----------------------------------PLEASE NOTE---------------------------------#
#This file is the author's own work and represents their interpretation of the #
#song. You may only use this file for private study, scholarship, or research. #
#------------------------------------------------------------------------------#

A TEMPERMENTAL WIDOWER
As recorded by Norma Jean

Transcribed by PaulieD17
	



Gtr I (Db Gb B E Ab Db) - 'Chris Day'
Gtr II (Db Gb B E Ab Db) - 'Scottie Henry'
Gtr III (Db Gb B E Ab Db) - 'Noise'

 Noise
  Q=96
 1/8   4/4                                           3/4
  Gtr I
                     \0.5_______/
  S S   W            H         +H         W           +H.
|-----|----------|---------------------|------------|--------||
|-----|----------|---------------------|------------|--------||
|-----|----------|---------------------|------------|--------||
|-----|----------|---------------------|--3---------|-(3)----||
|-----|----------|-(<4>)------(<4>)----|------------|--------||
|-0-0-|-3--------|-(<4>)------(<4>)----|--3---------|-(3)----||
|
| Gtr II
| E     W           +W                   +W           +H.
|-----|----------|---------------------|------------|--------||
|-----|----------|---------------------|------------|--------||
|-----|----------|---------------------|------------|--------||
|-----|----------|---------------------|------------|--------||
|-----|----------|---------------------|------------|--------||
|-----|-3--------|--(3)----------------|-(3)--------|-(3)----||


 Intro/ Verse
  Gtrs I, II
  S S S S S S S S S S S S   S S S S S S S S S S S S
|-------------------------|-------------------------|
|-------------------------|-------------------------|
|-------------------------|-------------------------|
|-3-3-3-3-3-3-3-3-3-3-3-3-|-3-3-3-3-3-3-3-3-3-3-3-3-|
|-3-3-3-3-3-3-3-3-3-3-3-3-|-3-3-3-3-3-3-3-3-3-3-3-3-|
|-3-3-3-3-3-3-3-3-3-3-3-3-|-3-3-3-3-3-3-3-3-3-3-3-3-|


  S S S S S S S S S S S S   S S S S S S S S S S S S
|-------------------------|-------------------------|
|-------------------------|-------------------------|
|-------------------------|-------------------------|
|-3-3-3-3-3-3-3-3-3-3-3-3-|-3-3-3-3-3-3-3-3-3-3-3-3-|
|-3-3-3-3-3-3-3-3-3-3-3-3-|-3-3-3-3-3-3-3-3-3-3-3-3-|
|-3-3-3-3-3-3-3-3-3-3-3-3-|-3-3-3-3-3-3-3-3-3-3-3-3-|


 7/8
   S  S  E  S  E  E  E E.    S  S  E  S  E  E  E E.    S  S  E  S  E  E  E E.
|-------------------------|-------------------------|-------------------------|
|-------------------------|-------------------------|-------------------------|
|-------------------------|-------------------------|-------------------------|
|-------------------------|-------------------------|-------------------------|
|--------------------3-3--|--------------------3-3--|--------------------3-3--|
|-17-15-17\---12-15\-3-3--|-17-15-17\---12-15\-3-3--|-17-15-17\---12-15\-3-3--|


 9/16                 4/4
   S  S  E  S  E  E     W           +W
|--------------------|------------|--------||
|--------------------|------------|--------||
|--------------------|------------|--------||
|--------------------|------------|--------||
|--------------------|------------|--------||
|-17-15-17\---12-15\-|-(3)--------|-(3)----||


 Verse
  S S S S S S S S S S S S S S S S   S S S S S S S S S S S S S S S S
|---------------------------------|---------------------------------|
|---------------------------------|---------------------------------|
|---------------------------------|---------------------------------|
|-3-3-3-3-3-3-3-3-3-3-3-3-3-3-3-3-|-3-3-3-3-3-3-3-3-3-3-3-3-3-3-3-3-|
|-3-3-3-3-3-3-3-3-3-3-3-3-3-3-3-3-|-3-3-3-3-3-3-3-3-3-3-3-3-3-3-3-3-|
|-3-3-3-3-3-3-3-3-3-3-3-3-3-3-3-3-|-3-3-3-3-3-3-3-3-3-3-3-3-3-3-3-3-|


  S S S S S S S S S S S S S S S S   S S S S S S S S S S S S S S S S
|---------------------------------|---------------------------------|
|---------------------------------|---------------------------------|
|---------------------------------|---------------------------------|
|-3-3-3-3-3-3-3-3-3-3-3-3-3-3-3-3-|-3-3-3-3-3-3-3-3-3-3-3-3-3-3-3-3-|
|-3-3-3-3-3-3-3-3-3-3-3-3-3-3-3-3-|-3-3-3-3-3-3-3-3-3-3-3-3-3-3-3-3-|
|-3-3-3-3-3-3-3-3-3-3-3-3-3-3-3-3-|-3-3-3-3-3-3-3-3-3-3-3-3-3-3-3-3-|


   S  S  E  S  E  E  E E.    S  S  E  S  E  E  E E.
|-------------------------|-------------------------|
|-------------------------|-------------------------|
|-------------------------|-------------------------|
|-------------------------|-------------------------|
|--------------------3-3--|--------------------3-3--|
|-17-15-17\---12-15\-3-3--|-17-15-17\---12-15\-3-3--|


   S  S  E  S  E  E  E E.    S  S  E  S  E  E  E E.
|-------------------------|-------------------------||
|-------------------------|-------------------------||
|-------------------------|-------------------------||
|-------------------------|-------------------------||
|--------------------3-3--|--------------------3-3--||
|-17-15-17\---12-15\-3-3--|-17-15-17\---12-15\-3-3--||


 Bridge
 4/4
  E E E S E E E S S S   E S S E S E E E S S S   E E E S E E E S S S
|---------------------|-----------------------|---------------------|
|---------------------|-----------------------|---------------------|
|---------------------|-----------------------|---------------------|
|-2-2---0-2-5-1-1-1-1-|-2-2-2-2-0-2-5-1-1-1-1-|-2-2---0-2-5-1-1-1-1-|
|-2-2---0-2-5-1-1-1-1-|-2-2-2-2-0-2-5-1-1-1-1-|-2-2---0-2-5-1-1-1-1-|
|-2-2---0-2-5-1-1-1-1-|-2-2-2-2-0-2-5-1-1-1-1-|-2-2---0-2-5-1-1-1-1-|


  E E E S E E E S S S   E E S S S E E E S S S   E E S S S E E E S S S
|---------------------|-----------------------|-----------------------|
|---------------------|-----------------------|-----------------------|
|---------------------|-----------------------|-----------------------|
|-2-2---0-2-5-1-1-1-1-|-2-2-2-2-0-2-5-1-1-1-1-|-2-2-2-2-0-2-5-1-1-1-1-|
|-2-2---0-2-5-1-1-1-1-|-2-2-2-2-0-2-5-1-1-1-1-|-2-2-2-2-0-2-5-1-1-1-1-|
|-2-2---0-2-5-1-1-1-1-|-2-2-2-2-0-2-5-1-1-1-1-|-2-2-2-2-0-2-5-1-1-1-1-|


  E E S S S E E E S S S   E E S S S E E E S S S
|-----------------------|-----------------------||
|-----------------------|-----------------------||
|-----------------------|-----------------------||
|-2-2-2-2-0-2-5-1-1-1-1-|-2-2-2-2-0-2-5-1-1-1-1-||
|-2-2-2-2-0-2-5-1-1-1-1-|-2-2-2-2-0-2-5-1-1-1-1-||
|-2-2-2-2-0-2-5-1-1-1-1-|-2-2-2-2-0-2-5-1-1-1-1-||


 Interlude
  TPTP       TP       TP          TP TP       TP       TP
  S S S S  E S S S  E S S S  E    S  S S S  E S S S  E S S S  E
|------------------------------|--------------------------------|
|------------------------------|--------------------------------|
|------------------------------|--------------------------------|
|------------------------------|--------------------------------|
|-0-0-9-0-12-0-9-0-12-0-9-0-12-|--0--0-9-0-12-0-9-0-12-0-9-0-12-|
|-0-0-9-0-12-0-9-0-12-0-9-0-12-|--0--0-9-0-12-0-9-0-12-0-9-0-12-|
|
| Gtr II
| W                              +W
|------------------------------|--------------------------------|
|------------------------------|--------------------------------|
|------------------------------|--------------------------------|
|------------------------------|--------------------------------|
|-0----------------------------|-(0)----------------------------|
|-0----------------------------|-(0)----------------------------|


   TP TP       TP       TP          TP TP       TP       TP
   S  S S S  E S S S  E S S S  E    S  S S S  E S S S  E S S S  E
|--------------------------------|--------------------------------|
|--------------------------------|--------------------------------|
|--------------------------------|--------------------------------|
|--------------------------------|--------------------------------|
|--0--0-9-0-12-0-9-0-12-0-9-0-12-|--0--0-9-0-12-0-9-0-12-0-9-0-12-|
|--0--0-9-0-12-0-9-0-12-0-9-0-12-|--0--0-9-0-12-0-9-0-12-0-9-0-12-|
|
| +W                               +W
|--------------------------------|--------------------------------|
|--------------------------------|--------------------------------|
|--------------------------------|--------------------------------|
|--------------------------------|--------------------------------|
|-(0)----------------------------|-(0)----------------------------|
|-(0)----------------------------|-(0)----------------------------|


  TPTP       TP       TP         TPTP       TP       TP
  S S S S  E S S S  E S S S  E   S S S S  E S S S  E S S S  E
|------------------------------|------------------------------||
|------------------------------|------------------------------||
|------------------------------|------------------------------||
|------------------------------|------------------------------||
|-0-0-9-0-12-0-9-0-12-0-9-0-12-|-0-0-9-0-12-0-9-0-12-0-9-0-12-||
|-0-0-9-0-12-0-9-0-12-0-9-0-12-|-0-0-9-0-12-0-9-0-12-0-9-0-12-||


 Breakdown
  Gtrs I, II
  TPTP       TP  TP         PM|   TPTP       TP  TP         PM|
  S S S S  E S S S  E S S S S S   S S S S  E S S S  E S S S S S
|-------------------------------|--------------------------------|
|-------------------------------|--------------------------------|
|-------------------------------|--------------------------------|
|-------------------------------|--------------------------------|
|-0-0-9-0-12-0-9-0-12-0-9-8-----|-0-0-9-0-12-0-9-0-12-0-9-8------|
|-0-0-9-0-12-0-9-0-12-0-9-8-0-0-|-0-0-9-0-12-0-9-0-12-0-9-8-0-0--|


  TPTP       TP  TP         PM|   TPTP       TP  TP         PM|
  S S S S  E S S S  E S S S S S   S S S S  E S S S  E S S S S S
|-------------------------------|--------------------------------|
|-------------------------------|--------------------------------|
|-------------------------------|--------------------------------|
|-------------------------------|--------------------------------|
|-0-0-9-0-12-0-9-0-12-0-9-8-----|-0-0-9-0-12-0-9-0-12-0-9-8------|
|-0-0-9-0-12-0-9-0-12-0-9-8-0-0-|-0-0-9-0-12-0-9-0-12-0-9-8-0-0--|


  TPTP       TP  TP         PM|   TPTP       TP  TP         PM|
  S S S S  E S S S  E S S S S S   S S S S  E S S S  E S S S S S
|-------------------------------|--------------------------------|
|-------------------------------|--------------------------------|
|-------------------------------|--------------------------------|
|-------------------------------|--------------------------------|
|-0-0-9-0-12-0-9-0-12-0-9-8-----|-0-0-9-0-12-0-9-0-12-0-9-8------|
|-0-0-9-0-12-0-9-0-12-0-9-8-0-0-|-0-0-9-0-12-0-9-0-12-0-9-8-0-0--|


  TPTP       TP  TP         PM|   TPTP       TP  TP         PM|
  S S S S  E S S S  E S S S S S   S S S S  E S S S  E S S S S S
|-------------------------------|--------------------------------|
|-------------------------------|--------------------------------|
|-------------------------------|--------------------------------|
|-------------------------------|--------------------------------|
|-0-0-9-0-12-0-9-0-12-0-9-8-----|-0-0-9-0-12-0-9-0-12-0-9-8------|
|-0-0-9-0-12-0-9-0-12-0-9-8-0-0-|-0-0-9-0-12-0-9-0-12-0-9-8-0-0--|


  E E S  S S S S S S S S S S S   S S S S S S S S S S S S S E.
|------------------------------|-------------------------------||
|------------------------------|-------------------------------||
|------------------------------|-------------------------------||
|------------------------------|-------------------------------||
|------------------------------|-------------------------------||
|-2-2-2--2-2-2-2-2-2-2-2-2-2-2-|-2-2-2-2-2-2-2-2-2-2-2-2-2-----||
|
| Gtr II
| E E H.                         S S S S S S S S S S S S S E.
|------------------------------|-------------------------------||
|------------------------------|-------------------------------||
|------------------------------|-------------------------------||
|------------------------------|-------------------------------||
|------------------------------|-------------------------------||
|-2-2--------------------------|-2-2-2-2-2-2-2-2-2-2-2-2-2-----||


 Verse
  Gtrs I, II
  S S S S S S S S S S S S S S S S   S S S S S S S S S S S S S S S S
|---------------------------------|---------------------------------|
|---------------------------------|---------------------------------|
|---------------------------------|---------------------------------|
|-2-2-2-2-2-2-2-2-2-2-2-2-2-2-2-2-|-2-2-2-2-2-2-2-2-2-2-2-2-2-2-2-2-|
|-2-2-2-2-2-2-2-2-2-2-2-2-2-2-2-2-|-2-2-2-2-2-2-2-2-2-2-2-2-2-2-2-2-|
|-2-2-2-2-2-2-2-2-2-2-2-2-2-2-2-2-|-2-2-2-2-2-2-2-2-2-2-2-2-2-2-2-2-|


  S S S S S S S S S S S S S S S S   S S S S S S S S S S S S S S S S
|---------------------------------|---------------------------------|
|---------------------------------|---------------------------------|
|---------------------------------|---------------------------------|
|-2-2-2-2-2-2-2-2-2-2-2-2-2-2-2-2-|-2-2-2-2-2-2-2-2-2-2-2-2-2-2-2-2-|
|-2-2-2-2-2-2-2-2-2-2-2-2-2-2-2-2-|-2-2-2-2-2-2-2-2-2-2-2-2-2-2-2-2-|
|-2-2-2-2-2-2-2-2-2-2-2-2-2-2-2-2-|-2-2-2-2-2-2-2-2-2-2-2-2-2-2-2-2-|


 7/8
   S  S  E  S  E  E  E E.    S  S  E  S  E  E  E E.
|-------------------------|-------------------------|
|-------------------------|-------------------------|
|-------------------------|-------------------------|
|-------------------------|-------------------------|
|--------------------2-2--|--------------------3-3--|
|-17-15-17\---12-14\-2-2--|-17-15-17\---12-14\-3-3--|


   S  S  E  S  E  E  E E.    S  S  E  S  E  E  E E.
|-------------------------|-------------------------||
|-------------------------|-------------------------||
|-------------------------|-------------------------||
|-------------------------|-------------------------||
|--------------------2-2--|--------------------3-3--||
|-17-15-17\---12-14\-2-2--|-17-15-17\---12-14\-3-3--||


 Outro
 4/4
  Q   E.      E E    E S S S   E E E S E E E S S S
|----------------------------|---------------------|
|----------------------------|---------------------|
|-------------4-7----3-3-3-3-|---------4-7-3-3-3-3-|
|-------------4-7----3-3-3-3-|-2-2-0---4-7-3-3-3-3-|
|-------------2-5----1-1-1-1-|-2-2-0---2-5-1-1-1-1-|
|----------------------------|-2-2-0---------------|
|
| Gtr III
| Q   S   S Q     Q.           W
|--------15------------------|---------------------|
|----------------------------|---------------------|
|----12----------------------|---------------------|
|----------------------------|---------------------|
|----------------------------|---------------------|
|----------------------------|---------------------|


 2/4        4/4
  E. E. E    E E E S E E E S S S
|----------|---------------------|
|----------|---------------------|
|----3-----|---------4-7-3-3-3-3-|
|-2--3--4--|-2-2-0---4-7-3-3-3-3-|
|-2--1--4--|-2-2-0---2-5-1-1-1-1-|
|-2-----4--|-2-2-0---------------|
|
| H          W
|----------|---------------------|
|----------|---------------------|
|----------|---------------------|
|----------|---------------------|
|----------|---------------------|
|----------|---------------------|


  E E E S E E E S S S   E E E S E E E S S S   E E E S E E E S S S
|---------------------|---------------------|----------------------|
|---------------------|---------------------|----------------------|
|---------4-7-3-3-3-3-|---------4-7-3-3-3-3-|---------4-7-3-3-3-3--|
|-2-2-0---4-7-3-3-3-3-|-2-2-0---4-7-3-3-3-3-|-2-2-0---4-7-3-3-3-3--|
|-2-2-0---2-5-1-1-1-1-|-2-2-0---2-5-1-1-1-1-|-2-2-0---2-5-1-1-1-1--|
|-2-2-0---------------|-2-2-0---------------|-2-2-0----------------|


 2/4       4/4
  E. E. E   E E E S E E E S S S   E. E. H    +E
|---------|---------------------|----------------||
|---------|---------------------|----------------||
|----3----|---------4-7-3-3-3-3-|----3-----------||
|-2--3--4-|-2-2-0---4-7-3-3-3-3-|-2--3--4----(4)-||
|-2--1--4-|-2-2-0---2-5-1-1-1-1-|-2--1--4----(4)-||
|-2-----4-|-2-2-0---------------|-2-----4----(4)-||


 Noise
  Gtr III
   /1___\1___/1___\1___\1____________________
   E   +E   +E   +E    a   +H       +W
|---------------------------------|--------*|
|---------------------------------|--------*|
|---------------------------------|--------*|
|--2---(2)--(2)--(2)--(2)--(2)----|-(2)----*|
|---------------------------------|--------*|
|---------------------------------|--------*|
|
| Gtr I
| +W                                +W
|---------------------------------|--------*|
|---------------------------------|--------*|
|---------------------------------|--------*|
|-(4)-----------------------------|-(4)----*|
|-(4)-----------------------------|-(4)----*|
|-(4)-----------------------------|-(4)----*|



Duration Legend
---------------
W - whole; H - half; Q - quarter; E - 8th; S - 16th; T - 32nd; X - 64th; a - acciaccatura
+ - note tied to previous; . - note dotted; .. - note double dotted
Uncapitalized letters represent notes that are staccato (1/2 duration)
Irregular groupings are notated above the duration line
Duration letters will always appear directly above the note/fret number it represents the
duration for.  Duration letters with no fret number below them represent rests.  Multi-
bar rests are notated in the form Wxn, where n is the number of bars to rest for.  Low
melody durations appear below the staff

Tablature Legend
----------------
 h   - hammer-on
 p   - pull-off
 b   - bend
 pb  - pre-bend
 r   - bend release (if no number after the r, then release immediately)
 /\  - slide into or out of (from/to "nowhere")
 s   - legato slide
 S   - shift slide
 - natural harmonic
[n]  - artificial harmonic
n(n) - tapped harmonic
 ~   - vibrato
 tr  - trill
 T   - tap
 TP  - trem. picking
 PM  - palm muting
\n/  - tremolo bar dip; n = amount to dip
 \n  - tremolo bar down
 n/  - tremolo bar up
/n\  - tremolo bar inverted dip
 =   - hold bend; also acts as connecting device for hammers/pulls
 <> - volume swell (louder/softer)
 x   - on rhythm slash represents muted slash
 o   - on rhythm slash represents single note slash

Misc Legend
-----------
 |  - bar
||  - double bar
||o - repeat start
o|| - repeat end
*|  - double bar (ending)
 :  - bar (freetime)
 $  - Segno
 &  - Coda
Tempo markers -  = BPM(8/16=s8/s16), where s8 = swing 8ths, s16 = swing 16ths

Related for A Tempermental Widower tab