Song name
# A B C D E F G H I J K L M N O P Q R S T U V W X Y Z

Norma Jean - Murderotica tab

Norma Jean - Murderotica (An Avalanche In D Minor)

tabbed by Dan Williams, http://www.youtube.com/user/danimo

Tuning, low to high - C# G# C# F# A# B

Since I can't really define a structure to this song, I've just sorted it into different 'parts'

Not saying it's 100%, but it's a lot more coherent than other tabs for this song. Cheers. dw

key:

x - staccato
s & / - slide
b - bend
* - pinch harmonic
~ - ring out
. - palm mute

Intro, after some feedback

guitar 1
||---4xx6---------4xx6-||
||---4xx6---------4xx6-||
||---------------------||
||---------------------||
||---------------------||
||-2s-----3b-5b-0------||

Part 1

both
||----4----4xx6---4xx6--||
||----4----4xx6---4xx6--||
||----------------------|| x4
||----------------------||
||----------------------||
||-2b---2b------3b-5b-0-||

Part 2

both                            x2
||----4-----------|-------------|-----------------|-------------|-----------------||
||----4-----------|-------------|-----------------|-------------|-----------------||
||----------------|-------------|-----------------|-------------|-----------------||
||----------------|-------------|-----------------|-------------|-----------------||
||----------------|-------------|------------0000-|-------------|-----------------||
||-2b---1b-0-0000-|-2b-4b-1b-00-|-2b-4b-1b-0-0000-|-2b-4b-1b-00-|-2b-4b-1b-0-0000-||
             ....            ..              ....            ..              ....

Part 3

both            x4
||--------------|-------||
||--------------|-------||
||--------------|-------||
||-2--4-1-0-0-0-|-0-0-0-||
||-2--4-1-0-0-0-|-0-0-0-||
||-2--4-1-0-0-0-|-0-0-0-||
            . .

Part 4.1

both                                                            1st time only
||--------------------------------------------------------------|------||
||--------------------------------------------------------------|------||
||--------------------------------------------------------------|------||
||--------------------------------------------------------------|------||
||--------------------------------------------------------------|------||
||-1/12-0000-1/5-1/12-0000-1/5-1/5-1/12-0000-1/5-1/12-0000-1/12-|-0000-||
        ....          ....              ....          ....        ....

Part 5

guitar 1               x7
||----|-12---14----17s-|-12-12-----||
||----|-12---14----17s-|-12-12-----||
||----|----------------|-----------||
||-0~-|----0----00-----|-----------||
||-0~-|----0----00-----|-----------||
||-0~-|----0----00-----|-------12s-||
           .    ..

guitar 2               x7
||---------------------|-12-12-----||
||---------------------|-12-12-----||
||---------------------|-----------||
||------0~----------0~-|-----------||
||------0~----------0~-|-----------||
||-14\1-0~---1/14\1-0~-|-------12s-||


Part 1 repeated, but MORE

both
||----4----4xx6---4xx6--||
||----4----4xx6---4xx6--||
||----------------------|| x8
||----------------------||
||----------------------||
||-2b---2b------3b-5b-0-||


Part 2 repeated, slight shorter

both                            x2
||----4-----------|-------------|-----------------||
||----4-----------|-------------|-----------------||
||----------------|-------------|-----------------||
||----------------|-------------|-----------------||
||----------------|-------------|------------0000-||
||-2b---1b-0-0000-|-2b-4b-1b-00-|-2b-4b-1b-0-0000-||
             ....            ..              ....

Part 3 repeated, slightly different 

both            x3
||--------------|-----------0--0-||
||--------------|-----------0--0-||
||--------------|----------------||
||-2--4-1-0-0-0-|-2--4-1-0-------||
||-2--4-1-0-0-0-|-2--4-1-0-------||
||-2--4-1-0-0-0-|-2--4-1-0-------||
            . .

Part 6

both
||-0----------------------------------|-0---------------------------------0-|
||-0----------------------------------|-0---------------------------------0-|
||------------------------------------|-------------------------------------|
||------------------------------------|-------------------------------------|
||------------------------------------|-------------------------------------|
||---0000-3-2b-0000-3-2-1b-0000-3b-2b-|---0000-3-2b-0000-3-2-1b-0000-3-2b---|


continued...
||-0----------------------------------|-0---------------------------------0-0-|
||-0----------------------------------|-0---------------------------------0-0-|
||------------------------------------|---------------------------------------|
||------------------------------------|---------------------------------------|
||------------------------------------|---------------------------------------|
||---0000-3-2b-0000-3-2-1b-0000-3b-2b-|---0000-3-2b-0000-3-2-1b-0000-3-2b-----|

continued...
||-0----------------------------------|-0---------------------------------0--0-||
||-0----------------------------------|-0---------------------------------0--0-||
||------------------------------------|----------------------------------------|| end
||------------------------------------|----------------------------------------||
||------------------------------------|----------------------------------------||
||---0000-3-2b-0000-3-2-1b-0000-3*----|---0000-3-2b-0000-3-2-1b-0000-3-2b------||
Tap to rate this tab
 
# A B C D E F G H I J K L M N O P Q R S T U V W X Y Z