Song name
# A B C D E F G H I J K L M N O P Q R S T U V W X Y Z

Norma Jean - Absentimental tab

---------------------------------------------------------
		  Absentimental - Norma Jean
---------------------------------------------------------
Tabbed by: Kristyn Lee
Email: spot_the_village_loony_836@hotmail.com

Tuning: Db Ab Db Gb Bb eb

eb|--------------------------------------------------------------|
Bb|--------------------------------------------------------------|
Gb|--------------------------------------------------------------|
Db|--------------------------------------------------------------|x4
Ab|---6p0-6p0--------5p0-------8p0-------8p0--------3-5-6--------|
Db|-----------6h7-p0-----6p5p0-----6p5p0-----6p5p0--3-5-6--000---|
                                                           ...
End of intro                                                
eb|---------|
Bb|---------|
Gb|---------|
Db|--6~-----|
Ab|--6~-----|
Db|--6~-----|

0:24
eb|-----------------------------------------------|
Bb|-----------------------------------------------|
Gb|-----------------------------------------------|
Db|--6p0-6p0-6p0-0-6p0-6p0-6p0-0-6p0-6p0-6p0------|
Ab|-----------------------------------------------|
Db|-----------------------------------------------|
0:28  play this heaps
eb|--------------------------------------------------------------|
Bb|--------------------------------------------------------------|
Gb|--------------------------------------------------------------|
Db|--------------------------------------------------------------|
Ab|--1p0-1p0-1p0-0-1p0-1p0-1p0-0-1p0-1p0-1p0-0-1p0-1p0-1p0-0-----|
Db|--1p0-1p0-1p0-0-1p0-1p0-1p0-0-1p0-1p0-1p0-0-1p0-1p0-1p0-0-----|
                 .             .             .             .
0:49
eb|---------------|
Bb|---------------|
Gb|---------------|
Db|---6-6-6-6-----|
Ab|---6-6-6-6-----|
Db|---6-6-6-6-----|
0:51
eb|-------------------------------------------------------------|
Bb|-------------------------------------------------------------|
Gb|-------------------------------------------------------------|
Db|-------------------------------------------------------------|
Ab|-------------------------------------------------------------|
Db|--////12-121212121212\\\000000////12121212121212\\\000000----|
            . . . . . .    ......      . . . . . .    ......

eb|--------------------------------------------------------|
Bb|--------------------------------------------------------|
Gb|--------------------------------------------------------|
Db|----------------------------------------------6-6-6-6---|
Ab|----------------------------------------------6-6-6-6---|
Db|--///12121212121212\\\000000///12121212121212-6-6-6-6---|
          . . . . . .    ......     . . . . . .

eb|-------------------------------------------------------------|
Bb|-------------------------------------------------------------|
Gb|-------------------------------------------------------------|
Db|-------------------------------------------------------------|
Ab|-------------------------------------------------------------|
Db|--////12-121212121212\\\000000////12121212121212\\\000000----|
            . . . . . .    ......      . . . . . .    ......

eb|-------------------------------------------------------|
Bb|-------------------------------------------------------|
Gb|-------------------------------------------------------|
Db|----------------------------------------------3-5-6----|
Ab|----------------------------------------------3-5-6----|
Db|--///12121212121212\\\000000///12121212121212-3-5-6----|
          . . . . . .    ......     . . . . . .
1:08
eb|-------------------------------------------------------|
Be|-------------------------------------------------------|
Gb|-------------------------------------------------------|x2
Db|------------------------8p5------8p5-------3-5-6-------|
Ab|-6p0-6p0--------5p0---------8p5------8p5---3-5-6-------|
Db|---------6h7-p0-----6p0--------0--------0--3-5-6-000---|
1:18                                                ...
eb|-------------------------------------------------------|
Bb|-------------------------------------------------------|
Gb|-------------------------------------------------------|x4
Db|----------------------------------------3-5-6----------|
Ab|--1p0-1p0-1/6----6p0---3-3--0-3p0-3p0---3-5-6----------|
Db|--1p0-1p0-1/6-00-6p0-0-3-3--0-3p0-3p0-0-3-5-6-000------|
                 ..     .                .       ...
The breakdown, my favorite part.
eb|----------------------------------------------------------------------|
Bb|----------------------------------------------------------------------|
Gb|----------------------------------------------------------------------|
Db|----------------------------------------------------------------------|
Ab|--00-00-00-00-00-00-00-00-00-00-00-00-00-00-00-00-00-00-00-00---------|
Db|--00-00-00-00-00-00-00-00-00-00-00-00-00-00-00-00-00-00-00-00-3h5h6---|
     .. .. .. .. .. .. .. .. .. .. .. .. .. .. .. .. .. .. .. ..
1:49
eb|--------------------------------------------------------------------|
Bb|---------------------------------------------------------------0~---|
Gb|---------------------------------------------------------------0~---|
Db|---------------------------------------------------------------0~---|
Ab|--000-000-000-000-000-000-000-000-000-000-000-000-000-000-000-------|
Db|--000-000-000-000-000-000-000-000-000-000-000-000-000-000-000-------|
     ... ... ... ... ... ... ... ... ... ... ... ... ... ... ...
2:22   play this heaps
eb|--------------------------------------------------------------|
Bb|--------------------------------------------------------------|
Gb|--------------------------------------------------------------|
Db|--------------------------------------------------------------|
Ab|--1p0-1p0-1p0-0-1p0-1p0-1p0-0-1p0-1p0-1p0-0-1p0-1p0-1p0-0-----|
Db|--1p0-1p0-1p0-0-1p0-1p0-1p0-0-1p0-1p0-1p0-0-1p0-1p0-1p0-0-----|
                 .             .             .             .
2:39  
      play x 3              then this x1
eb|-----------------------------|-------------------------|
Bb|-----------------------------|-----------------xxx-0---|
Gb|-----------------------------|-----------------xxx-0---|
Db|-----------------------------|-----------------xxx-0---|
Ab|--1p0-1p0-1/3----1p0---0-0---|--1p0-1p0-1/3------------|
Db|--1p0-1p0-1/3-00-1p0-0-0-0---|--1p0-1p0-1/3-00---------|
                 ..     .                      ..
not sure about this part, i think it's right.
eb|-----------------------------|
Bb|-----------------------------|
Gb|-----------------------------|
Db|---4\1---1/2-----------------|
Ab|---4\1---1/2-----------------|
Db|-------0-----000000000000----|
          .     ............

  The End


************************************

| /   slide up
| \   slide down
| h   hammer-on
| p   pull-off
| ~   vibrato
| +   harmonic
| x   Mute note
| b   Bend
| pb  Pre-bend
| br  Bend release
| pbr Pre-bend release
| brb Bend release bend

************************************
Tap to rate this tab
# A B C D E F G H I J K L M N O P Q R S T U V W X Y Z