Norma Jean - Leaderless And Self Enlisted tab

Please give feedback...

I formed this tab around a one guitar arrangement.
I will try to figure out the more difficult riffs soon and update it,
but for now, here you go. Enjoy!

Tuning: Drop D, half-step down

 [Intro] [Pick-up]
Eb|-------------------------------------------------------------------------|
Bb|-------------------------------------------------------------------------|
Gb|-------------------------------------------------------------------------|
Db|-------------------------------------------------------------------------|
Ab|-------------------------------------------------------------------------|
Db|--12p---7---8-7---5-/12---7-8-7---5-/12---7---8-7---5-/12---7-8-7---5/---|






  [Verse 1]
Eb|-------------------------------------------------------------------------|
Bb|-------------------------------------------------------------------------|
Gb|-------------------------------------------------------------------------|
Db|-------------------------------------------------------------------------|
Ab|--12---7---8-7---5-/12---7-8-7---5-/12---7---8-7---5-/12---7-8-7---5-/---|
Db|--12---7---8-7---5-/12---7-8-7---5-/12---7---8-7---5-/12---7-8-7---5-/---|


Eb|-------------------------------------------------------------------------|
Bb|-------------------------------------------------------------------------|
Gb|-------------------------------------------------------------------------|
Db|-------------------------------------------------------------------------|
Ab|--12---7---8-7---5-/12---7-8-7---5-/12---7---8-7---5-/12---7-8-7---5---3-|
Db|--12---7---8-7---5-/12---7-8-7---5-/12---7---8-7---5-/12---7-8-7---5---3-|






  [Bridge 1 pt.1] (2x)
Eb|------------------------------------------------------------------------|
Bb|------------------------------------------------------------------------|
Gb|------------------------------------------------------------------------|
Db|------------------------------------------------------------------------|
Ab|--3p2p0p3---2---3---2----3p2p03---2---3------2---3---0------------------|
Db|--3p2p0p3---2---3---2----3p2p03---2---3------2---3---0------------------|


  [Bridge 1 pt.2]
Eb|-------------------------------------------------------------------------|
Bb|-------------------------------------------------------------------------|
Gb|--7~---------------------------------------------------------------------|
Db|--7~------6~------1~------4~---------------------------------------------|
Ab|--5~------6~------1~------4~---------------------------------------------|
Db|----------6~------1~------4~---------------------------------------------|






 [Chorus 1 Intro]
Eb|-------------------------------------------------------------------------|
Bb|-------------------------------------------------------------------------|
Gb|-------------------------------------------------------------------------|
Db|-------------------------------------------------------------------------|
Ab|-------------------------------------------------------------------------|
Db|--12---0--0h3br0--(8)/12---0---0h3br0--(8)/12---0--0h3br0----------------|


Eb|-------------------------------------------------------------------------|
Bb|-------------------------------------------------------------------------|
Gb|-------------------------------------------------------------------------|
Db|-------------------------------------------------------------------------|
Ab|-----------------------------------0-0-0-0-0-----------------------------|
Db|---8-8-8-8-8-8-8-3-3-3-3-5-5-5-5---0-0-0-0-03b---------------------------|


  [Chorus 1]
Eb|-------------------------------------------------------------------------|
Bb|-------------------------------------------------------------------------|
Gb|-------------------------------------------------------------------------|
Db|-------------------------------------------------------------------------|
Ab|--12---0--0h3br0--(8)/12---0--0h3br0--(8)/12---0--0h3br0-----------------|
Db|--12---0--0h3br0--(8)/12---0--0h3br0--(8)/12---0--0h3br0-----------------|


Eb|-------------------------------------------------------------------------|
Bb|-------------------------------------------------------------------------|
Gb|-------------------------------------------------------------------------|
Db|-------------------------------------------------------------------------|
Ab|---8-8-8-8-8-8-8-3-3-3-3-5-5-5-5-----------------------------------------|
Db|---8-8-8-8-8-8-8-3-3-3-3-5-5-5-5-----------------------------------------|


Eb|-------------------------------------------------------------------------|
Bb|-------------------------------------------------------------------------|
Gb|-------------------------------------------------------------------------|
Db|-------------------------------------------------------------------------|
Ab|--12---0--0h3br0--(8)/12---0--0h3br0--(8)/12---0--0h3br0-----------------|
Db|--12---0--0h3br0--(8)/12---0--0h3br0--(8)/12---0--0h3br0-----------------|


Eb|-------------------------------------------------------------------------|
Bb|-------------------------------------------------------------------------|
Gb|-------------------------------------------------------------------------|
Db|-------------------------------------------------------------------------|
Ab|---8-8-8-8-8-8-8-3-3-3-3-5-5-5-5-----------------------------------------|
Db|---8-8-8-8-8-8-8-3-3-3-3-5-5-5-5-----------------------------------------|






  [Break]  [Pitch harmonic on fret 3]
Eb|-------------------------------------------------------------------------|
Bb|-------------------------------------------------------------------------|
Gb|-------------------------------------------------------------------------|
Db|-------------------------------------------------------------------------|
Ab|---x-x-x-x-x-x-x-x-x-x-x-x-x-x-x-x---------------------------------------|
Db|---x-x-x-x-x-x-x-x-x-x-x-x-x-x-x-x---------------------------------------|


      or


  [Pick-up]
Eb|------------------------------------------------------------------------|
Bb|------------------------------------------------------------------------|
Gb|------------------------------------------------------------------------|
Db|------------------------------------------------------------------------|
Ab|------------------------------------------------------------------5--3--|
Db|--12---7---8-7---5-/12---7-8-7---5-/12---7---8-7---5-/12---7-8-7--5--3--|






  [Verse 2]
Eb|-------------------------------------------------------------------------|
Bb|-------------------------------------------------------------------------|
Gb|-------------------------------------------------------------------------|
Db|-------------------------------------------------------------------------|
Ab|--12---7---8-7---5-/12---7-8-7---5-/12---7---8-7---5-/12---7-8-7---5-/---|
Db|--12---7---8-7---5-/12---7-8-7---5-/12---7---8-7---5-/12---7-8-7---5-/---|


Eb|-------------------------------------------------------------------------|
Bb|-------------------------------------------------------------------------|
Gb|-------------------------------------------------------------------------|
Db|-------------------------------------------------------------------------|
Ab|--12---7---8-7---5-/12---7-8-7---5-/12---7---8-7---5-/12---7-8-7---53----|
Db|--12---7---8-7---5-/12---7-8-7---5-/12---7---8-7---5-/12---7-8-7---53----|






  [Bridge 2 pt.1] (2x)
Eb|------------------------------------------------------------------------|
Bb|------------------------------------------------------------------------|
Gb|------------------------------------------------------------------------|
Db|------------------------------------------------------------------------|
Ab|--3p2p03---2---3---2----3p2p03---2---3------2---3---0-------------------|
Db|--3p2p03---2---3---2----3p2p03---2---3------2---3---0-------------------|


  [Bridge 2 pt.2]
Eb|------------------------------------------------------------------------|
Bb|------------------------------------------------------------------------|
Gb|--7~--------------------------------------------------------------------|
Db|--7~------6~------1~------4~--------------------------------------------|
Ab|--5~------6~------1~------4~--------------------------------------------|
Db|----------6~------1~------4~--------------------------------------------|


Eb|-------------------------------------------------------------------------|
Bb|-------------------------------------------------------------------------|
Gb|--7-7-7-7-7-7-7-7--------------------------------------------------------|
Db|--7-7-7-7-7-7-7-7--------------------------------------------------------|
Ab|--5-5-5-5-5-5-5-5---6-6-6-6-6-6-6-6---1-1-1-1-1-1-1-1---4-4-4-4-4-4-4-4--|
Db|--------------------6-6-6-6-6-6-6-6---1-1-1-1-1-1-1-1---4-4-4-4-4-4-4-4--|






  [Chorus 2 Intro]
Eb|-------------------------------------------------------------------------|
Bb|-------------------------------------------------------------------------|
Gb|-------------------------------------------------------------------------|
Db|-------------------------------------------------------------------------|
Ab|-------------------------------------------------------------------------|
Db|--12---0--0h3br0--(8)/12---0---0h3br0--(8)/12---0--0h3br0----------------|


Eb|-------------------------------------------------------------------------|
Bb|-------------------------------------------------------------------------|
Gb|-------------------------------------------------------------------------|
Db|-------------------------------------------------------------------------|
Ab|-----------------------------------0-0-0-0-0-----------------------------|
Db|---8-8-8-8-8-8-8-3-3-3-3-5-5-5-5---0-0-0-0-03b---------------------------|


  [Chorus 2]
Eb|-------------------------------------------------------------------------|
Bb|-------------------------------------------------------------------------|
Gb|-------------------------------------------------------------------------|
Db|-------------------------------------------------------------------------|
Ab|--12---0--0h3br0--(8)/12---0--0h3br0--(8)/12---0--0h3br0-----------------|
Db|--12---0--0h3br0--(8)/12---0--0h3br0--(8)/12---0--0h3br0-----------------|


Eb|-------------------------------------------------------------------------|
Bb|-------------------------------------------------------------------------|
Gb|-------------------------------------------------------------------------|
Db|-------------------------------------------------------------------------|
Ab|--8-8-8-8-8-8-8-3-3-3-3-5-5-5-5------------------------------------------|
Db|--8-8-8-8-8-8-8-3-3-3-3-5-5-5-5------------------------------------------|


Eb|-------------------------------------------------------------------------|
Bb|-------------------------------------------------------------------------|
Gb|-------------------------------------------------------------------------|
Db|-------------------------------------------------------------------------|
Ab|--12---0--0h3br0--(8)/12---0--0h3br0--(8)/12---0--0h3br0-----------------|
Db|--12---0--0h3br0--(8)/12---0--0h3br0--(8)/12---0--0h3br0-----------------|


Eb|-------------------------------------------------------------------------|
Bb|-------------------------------------------------------------------------|
Gb|-------------------------------------------------------------------------|
Db|-------------------------------------------------------------------------|
Ab|--8-8-8-8-8-8-8-3-3-3-3-5-5-5-5------------------------------------------|
Db|--8-8-8-8-8-8-8-3-3-3-3-5-5-5-5------------------------------------------|






  [Pt.1 of Breakdown]
Eb|-------------------------------------------------------------------------|
Bb|-------------------------------------------------------------------------|
Gb|-------------------------------------------------------------------------|
Db|-------------------------------------------------------------------------|
Ab|-------------------------------------------------------------------------|
Db|--0-0-0-0-0h3br0-3b----0-0-0h3br0-3b-----0-0-0h3br0-3b-----0-0-0h3br0-3b-|


Eb|-------------------------------------------------------------------------|
Bb|-------------------------------------------------------------------------|
Gb|-------------------------------------------------------------------------|
Db|-------------------------------------------------------------------------|
Ab|--0-0-0---------------0-0-0------------0-0-0-------------0-0-0-----------|
Db|--0-0-0h3br0-3b-------0-0-0h3br-3b-----0-0-0h3br0-3b-----0-0-0h3br0-3b---|






 [Interlude]                              [Then]
Eb|-----------------------------|         |--------------|
Bb|-----------------------------|         |--------------|
Gb|-----------------------------|  (4x)   |--------------|
Db|-----------------------------|         |--------------|
Ab|--3p2p03---2---3---2---------|         |--2---3---0---|
Db|--3p2p03---2---3---2---------|         |--2---3---0---|


    or


  [Pitch harmonic on fret 3]
Eb|-------------------------------------------------------------------------|
Bb|-------------------------------------------------------------------------|
Gb|-------------------------------------------------------------------------|
Db|-------------------------------------------------------------------------|
Ab|---x-x-x-x-x-x-x-x-x-x-x-x-x-x-x-x---------------------------------------|
Db|---x-x-x-x-x-x-x-x-x-x-x-x-x-x-x-x---------------------------------------|



The rest of the breakdown is just like the interlude without the pitch harmonic and a 
more complicated riff played in the background
(hey, it's NORMA JEAN)


 [Outro]
Eb|-------------------------------------------------------------------------|
Bb|-------------------------------------------------------------------------|
Gb|-------------------------------------------------------------------------|
Db|-------------------------------------------------------------------------|
Ab|---3---8---5---3--2\-----------------------------------------------------|
Db|---3---8---5---3--2\-----------------------------------------------------|




Lyrics:


Leaderless And Self Enlisted


Enslavement wasn't my first choice.
My will is greater than that, believe me.
I'd scratch away to the center.
I'd bite it down to the blood.
I want to rip out the foundation,
I want the axis to rupture.

I never wanted to tell you since we know you've heard it before.
Yeah... I never wanted to show you since we know you've seen it before
I break your heart,
I know, I know you've felt it before.

Yeah, too many things try to pull me down.
Life seems to be like a dropping cloud.
Believe me, I'd scratch away to the center.
I'd bite it down to the blood..
I want to rip out the foundation,
I want the axis to rupture.
I'd scratch away to the center.
I'd bite it down to the blood.

I never wanted to tell you since we know you've heard it before.
Yeah... I never wanted to show you since we know you've seen it before
I break your heart,
I know, I know you've felt it before,
So many times before, before.

I'd scratch away to the center.
I'd bite it down to the blood, the blood.

I'd scratch away to the center.
I'd bite it down to the blood.
I'd scratch away to the center.
I'd bite it down to the blood.
I'd bite it down to the blood.
Tap to rate this tab
 
# A B C D E F G H I J K L M N O P Q R S T U V W X Y Z