Song name
# A B C D E F G H I J K L M N O P Q R S T U V W X Y Z

Norma Jean - The People That Surround You On A Regular Basis tab

The People that Surround You on a Regular Basis

Norma Jean

Tuning: Drop C#

Tabbed by T Kallas


intro
e|---------------------------------------|
B|--8-----------------------11-10-8------|
G|----7-7h8-5-5h7-7\---------------------|
D|---------------------------------------|
A|---------------------------------------|
E|---------------------------------------|

verse
e|-------------------------------------------|
B|-------------------------------------------|
G|----------------7-7-7-7-7------------------|
D|-5-----------------------------8-7-5-------|
A|-0--5-5h6-3-3/5-5-5-5-5-5------8-7-5-------|
E|-0--0-0---0-0---0-0-0-0-0------8-7-5-------|

chorus
e|----------------------------------------------------------------|
B|----------------------------------------------------------------|
G|----------------------------------------------------------------|
D|--5------0-------1--------8-8-8-8-8-8-8-------------------------|
A|--5------0-------1--------8-8-8-8-8-8-8-----5-5-5-5-6-6-3-------|
E|--5------0-------1--------8-8-8-8-8-8-8-----0-0-0-0-0-0-0-------|

after first chorus play this with intro part
e|-------------------------------------|
B|-------------------------------------|
G|-------------------------------------|
D|--5-5-5-5-5-8-8-7-0-0-0-0-0-1-1-0----|
A|--5-5-5-5-5-8-8-7-0-0-0-0-0-1-1-0----|
E|--5-5-5-5-5-8-8-7-0-0-0-0-0-1-1-0----|
   palm mute all

interlude       2x
e|-----------------|-----------------------------------------------|
B|-----------------|-----------------------------------------------|
G|-----------------|-----------------------------------------------|
D|--8-8-8-8-8-8-8--|------------------8\---------------8\----------|
A|--8-8-8-8-8-8-8--|--0-0-10\-0-0-0-0----0-10\-0-0-0-0-------------|
E|--8-8-8-8-8-8-8--|--0-0-----0-0-0-0----0-----0-0-0-0-------------|

lead part at end
e|------------------------------------------|
B|-/11-11-11-11-11--10-10-10-10-11-11-8-----|
G|------------------------------------------|
D|------------------------------------------|
A|------------------------------------------|
E|------------------------------------------|



Tap to rate this tab
# A B C D E F G H I J K L M N O P Q R S T U V W X Y Z