Song name
# A B C D E F G H I J K L M N O P Q R S T U V W X Y Z

Norma Jean - Everlasting Tapeworm tab

-----------------------------------------------------------------
Everlasting Tapeworm - Norma Jean
-----------------------------------------------------------------
Tabbed by: Jake Miller (millarso)
Email: millarso2.0@gmail.com
Tuning: Drop Db (Db Ab Db Gb Bb eb)

Section 1
Both Guitars
eb|-----------------------------|
Bb|-----------------------------|
Gb|-----------------------------|
Db|-----------------------------|x4
Ab|----7-0-----5------3------1--|
Db|-0------5-7---5-3b----5-3----|

Guitar 1 (A 3rd Track plays the notes in parentheses, presumably)
eb|--------------------------------------------------------------------|
Bb|-15----15----------15-15--17p0--17p0-17p0--17p0-17p0-18-15------15--|
Gb|-17b19-19-(x10ish)-19r17------15---------15---------(18-16)-18-(16)-|
Db|-----------------------------------------------------------(19)-----|x2
Ab|--------------------------------------------------------------------|
Db|--------------------------------------------------------------------|

Guitar 2
eb|-----------------------------|
Bb|-----------------------------|
Gb|-----------------------------|
Db|-----------------------------|x4
Ab|----7-0-----5------3------1--|
Db|-0------5-7---5-3b----5-3----|

Section 2
Guitar 1
eb|---------------------------------8-----7-8---------8------7-8----|
Bb|-----------------------------10-----10-----10--10-----10------10-|(let the 10s ring)
Gb|--------7-------------7------------------------------------------|
Db|-0------x-(x6)-0------x-(x6)-------------------------------------|
Ab|-0-(x6)-5------0-(x6)-5------------------------------------------|
Db|-0-------------0-------------------------------------------------|

Guitar 2
eb|---------------------------------------------------------------------|
Bb|---------------------------------------------------------------------|
Gb|---------------------------------------------------------------------|
Db|-0-------------0-------------7---------------------------------------|
Ab|-0-(x6)--------0-(x6)--------7-(x24)---------------------------------|
Db|-0-------------0-------------7---------------------------------------|

Guitar 1
eb|---------------------------------8-----7-8--------8----7-8---|
Bb|-----------------------------10-----10-----10--9-----9-----9-|
Gb|-------10------------10--------------------------------------|
Db|-5------x-(x6)-5------x-(x6)---------------------------------|
Ab|-5-(x6)-8------5-(x6)-8--------------------------------------|
Db|-5-------------5---------------------------------------------|

Guitar 2
eb|---------------------------------------------------------------------|
Bb|---------------------------------------------------------------------|
Gb|---------------------------------------------------------------------|
Db|-5-------------5-------------3--------------------2------------------|
Ab|-5-(x6)--------5-(x6)--------3-(x12)--------------2-(x12)------------|
Db|-5-------------5-------------3--------------------2------------------|

Section 3
Guitar 1 (sounds like it is played with a pedal going octave up)
eb|-------------------------------|
Bb|----5-------3------------------|
Gb|------2-0-2---2-5-2-5-2-4-5-2~-|
Db|-(0)---------------------------|x2
Ab|-(0)---------------------------|
Db|-(0)---------------------------|

Guitar 2
eb|-------------------------------------------|
Bb|-------------------------------------------|
Gb|-------------------------------------------|
Db|--0~---------------------------------------|
Ab|--0~-(let-ring)----------------------------|
Db|--0~---------------------------------------|

Section 4
-Identical to Section 1, but Guitar 2 plays this at the split...
Guitar 2
eb|----------------------------------|
Bb|----------------------------------|
Gb|----------------------------------|
Db|----------------------------------|x4
Ab|-0-0-0-0-7-0-----5------3------1--|
Db|-0-0-0-0-----5-7---5-3b----5-3----|
    . . . .

Section 2 (x1)

Section 5
-Identical to Section 2, but a 3rd guitar plays the vocal line...

   "...change!"       "...o - ver!"
eb|----------------------------------|
Bb|--3/10~-------------3/10~--9~-----|
Gb|----------------------------------|
Db|----------------------------------|
Ab|----------------------------------|
Db|----------------------------------|

Section 6
Guitar 1 (similar to section 3, octave up again, slowly fades in as guitar 2 plays)
eb|-------------------------|
Bb|-----5---3---------------|
Gb|-2---------2-5-2-5-2-4-5-|
Db|-------------------------|
Ab|-------------------------|
Db|-------------------------|

Guitar 2
eb|---------------------------------------|
Bb|---------------------------------------|
Gb|---------------------------------------|
Db|---------------------------------------|x4
Ab|-0-(x16)-7-(x16)-5-(x16)-3-(x8)-2-(x8)-|(start to let off PM on last time through)
Db|-0-------7-------5-------3------2------|
    .       .       .       .      .

Section 7 (also similar to section 2)
-Guitar 1 and Guitar 2 are mostly identical to Section 2...

3rd Guitar
eb|-3/-8----8/10-----------------------------8--------------|
Bb|---10-10------10\8/10---\5---6--/8--/10------10-10---9---|
Gb|---------------------------------------------------------|
Db|---------------------------------------------------------|
Ab|---------------------------------------------------------|
Db|---------------------------------------------------------|

eb|-13/20-------22--22b24-------------------------------------------|
Bb|------------------------20/22\20-17---15/17-18-20\18-15-15b17r15-|
Gb|-----------------------------------------------------------------|
Db|-----------------------------------------------------------------|
Ab|-----------------------------------------------------------------|
Db|-----------------------------------------------------------------|
-This part sounds like it could be slide guitar, but I'm not sure if it's
just effects or not because this could be difficult to play with a slide 
for some pieces. If so, the bends could be turned into slides and you 
could bring some of the notes to the top string.

Slow down Section 7 right at the end for the outro.

Some of the background end effects were hard to nail down,
but this should be good for the most part.
Please rate & comment.
Thanks,
millarso
Tap to rate this tab
# A B C D E F G H I J K L M N O P Q R S T U V W X Y Z