Song name
# A B C D E F G H I J K L M N O P Q R S T U V W X Y Z

Norma Jean - The Anthem Of The Angry Brides tab

-----------------------------------------------------------------
The Anthem Of The Angry Brides - Norma Jean
-----------------------------------------------------------------
Tabbed by: Jake Miller (millarso)
Email: millarso2.0@gmail.com
Tuning: Drop C

Intro/Section 1
Guitar 1 (first x4 in the background)
D|-------------------9p7p0-10p0-7p0-|
A|-9p0-3p0-6h9p0-7p0----------------|
F|----------------------------------|
C|----------------------------------|x4
G|----------------------------------|
C|----------------------------------|

Guitar 2
D|--------------|
A|--------------|
F|--------------|
C|-0------------|
G|-0-(let-ring)-|
C|-0------------|

Guitar 1 (first x4 in the background)
D|-------------------9p7p0-10p0-7p0-|
A|-9p0-3p0-6h9p0-7p0----------------|
F|----------------------------------|
C|----------------------------------|x4
G|----------------------------------|
C|----------------------------------|

Guitar 2(enters after first 4 bars of Guitar 1, same rhythm as bass)
D|--------------------------------------------------------------------------------|
A|--------------------------------------------------------------------------------|
F|-7-7-77-7-7-77777------10-10-1010-10-10-1010101010--13-13-1313-13-13-1313131313-|
C|-x-x-xx-x-x-xxxxx-(x2)--x--x--x-x--x--x--x-x-x-x-x---x--x--x-x--x--x--x-x-x-x-x-|
G|-5-5-55-5-5-55555-------8--8--8-8--8--8--8-8-8-8-8--11-11-1111-11-11-1111111111-|
C|--------------------------------------------------------------------------------|

Guitar 1
D|-------------------9p7p0-10p0-7p0-|
A|-9p0-3p0-6h9p0-7p0----------------|
F|----------------------------------|
C|----------------------------------|x4
G|----------------------------------|
C|----------------------------------|

Guitar 2 (harmony)
D|----------------------12p10p0-13p0-10p0-|
A|-12p0-6p0-9h12p0-10p0-------------------|
F|----------------------------------------|
C|----------------------------------------|x4
G|----------------------------------------|
C|----------------------------------------|

Section 2
Guitar 1
D|-------------------9p7p0-10p0-7p0-|
A|-9p0-3p0-6h9p0-7p0----------------|
F|----------------------------------|
C|----------------------------------|x3
G|----------------------------------|
C|----------------------------------|

D|-------------------9p7p0-10-----------------------12p10p0-|
A|-9p0-3p0-6h9p0-7p0-----------12p0-6p0-9h12p0-10p0---------|
F|----------------------------------------------------------|
C|----------------------------------------------------------|
G|----------------------------------------------------------|
C|----------------------------------------------------------|

Guitar 2
D|---------------------|
A|---------------------|
F|---------------------|
C|-3----3----6----9----|x2
G|-0----0----3----6----|
C|-0----0----3----6----|

Section 3
Guitar 1
D|--------------------------------------------------------------------------------|
A|--------------------------------------------0-0-9p0-8p0-7p0-0-13p0-13/16p0-16p0-|
F|--------------------------------------------------------------------------------|
C|-(4)--3\-3-3-3-32--3\-3-3-3-32--3\-3-3-3-32-------------------------------------|x2
G|-(x)--x--x-x-x-xx--x--x-x-x-xx--x--x-x-x-xx-------------------------------------|
C|-(4)--3\-3-3-3-32--3\-3-3-3-32--3\-3-3-3-32-------------------------------------|
 (1st time)

Guitar 2
D|------------------------------------------------------------|
A|------------------------------------------------------------|
F|------------------------------------------------------------|
C|-(4)--3--3-3-3-32--3--3-3-3-32--3--3-3-3-32--6---6---4s3s4--|x2
G|-(x)--x--x-x-x-xx--x--x-x-x-xx--x--x-x-x-xx--6---6---x-x-x--|
C|-(4)--3--3-3-3-32--3--3-3-3-32--3--3-3-3-32--6---6---4s3s4--|

Transition
D|--------------------------------|
A|--------------------------------|
F|--------------------------------|
C|-0-----------/////////////////--|
G|-0-----------/long-pick-slide/--|
C|-0-----------/////////////////--|

Section 2 (x1)
Section 3 (x1), but replace the last A|-13p0-13/16p0-16p0-| with |-13p0-13/16b18-| 

Section 4
D|---------------------------------------------------------------------------------|
A|---------------------------------------------------------------------------------|
F|---------------------------------------------------------------------------------|
C|-0---0---0--0---0----------------------------------------0---0---0--0---0--------|
G|-0---0---0--0---0--0-0-0---5-5---5-5---5---5-5---5-0-0-0-0---0---0--0---0--0-0-0-|
C|-0---0---0--0---0--0-0-0-0-----0-----0---0-----0---0-0-0-0---0---0--0---0--0-0-0-|
                     . . .                                                   . . .

Section 5
Both Guitars
D|------------------------------------------------------------|
A|------------------------------------------------------------|
F|---14-14---14-14---14---14-14---14--------------------------|
C|----x--x----x--x----x----x--x----x--------------------------|
G|-0-13-13-0-13-13-0-13-0-13-13-0-13-0-0-0--(0/slow-slide/15)-|
C|-0-------0-------0----0-------0----0-0-0---0/slow-slide/15--|
                                     . . .

D|-----------------------------------------|
A|-----------------------------------------|
F|---14-14---14-14---14---14-14---14-------|
C|----x--x----x--x----x----x--x----x-------|x4
G|-0-13-13-0-13-13-0-13-0-13-13-0-13-0-0-0-|
C|-0-------0-------0----0-------0----0-0-0-|
                                     . . .

D|-------------------------------------------------------------------------------|
A|-------------------------------------------------------------------------------|
F|---14-14---14-14---13---13-13---12---------11-11---10-10---9---8-8---7---------|
C|----x--x----x--x----x----x--x----x----------x--x----x--x---9---x-x---x-------0-|
G|-0-13-13-0-13-13-0-12-0-12-12-0-11-0-0-0-0-10-10-0--9--9-0-8-0-7-7-0-6-0-0-0-0-|
C|-0-------0-------0----0-------0----0-0-0-0-------0-------0---0-----0---0-0-0-0-|
                                     . . .                               . . .

This should be pretty darn close. Hard to hear the higher stuff going on, and Iím not
positive about the half-step difference between guitars on the last riff, but it sounds
pretty good, I think.

Please rate and comment.
Thanks,
millarso
Tap to rate this tab
# A B C D E F G H I J K L M N O P Q R S T U V W X Y Z