Song name
# A B C D E F G H I J K L M N O P Q R S T U V W X Y Z

Norma Jean - Hive Minds tab

-----------------------------
   Hive Minds - Norma Jean
-----------------------------
Tabbed by: millarso (Jake Miller)
E-mail: millarso2.0@gmail.com

Tuning: Drop B

Guitar 1: Left Channel
Guitar 2: Right Channel

INTRO
C#|-----|
G#|--6--| NOTE: One guitar plays this interval and plays around with
E |--7--|       some effects. Another guitar plays the first riff an
B |-----|       octave up with heavy fuzz.
F#|-----|
B |-----|

SECTION 1
Both Guitars
C#|-----------------------------------------------------------------|
G#|-----------------------------------------------------------------|
E |-----------------------------------------------------------------|
B |-----------------------------------------------------------------|
F#|-------------------------5---------------------------------------|
B |-7-7-7-0-0-0-0-0-0-8-7-0---7-5-7-8-8-8-1-1-1-1-1-1-4-4-4-4-4-4-4-|

C#|---------------------------------------------------------------------------------|
G#|---------------------------------------------------------------------------------|
E |---------------------------------------------------------------------------------|
B |---------------------------------------------------------------------------------|
F#|-------------------------5-------------------------------------------------------|
B |-7-7-7-0-0-0-0-0-0-8-7-0---7-5-7-8-8-8-1-1-1-1-1-1-4-4-4-4-4-4-4-3-3-3-3-3-3-3-3-|
||
Extra Guitar (plays on the 2nd half, listen to track)
C#|-----------------------------|
G#|-----------------------------|
E |-----5h7p0---------5h7p0-----|
B |-----------3p0-----------3p0-|xrepeat until end of above guitars
F#|-3h5-----------3h5-----------|
B |-----------------------------|

SECTION 2
Both Guitars
C#|---------------------------------|
G#|---------------------------------|
E |---------------------------------|
B |---------0-3-5-0-5-7-x-x---------|
F#|---------0-3-5-0-5-7-x-x---------|
B |-(noise)-0-3-5-0-5-7-x-x-(noise)-|

Guitar 2
C#|----------------------------------------------|
G#|----------------------------------------------|
E |----------------------------------------------|
B |-10-------3-5-0-5-7-x-x-9-------3-5-0-5-7-x-x-|x2
F#|--x(x24)--3-5-0-5-7-x-x-x(x24)--3-5-0-5-7-x-x-|
B |-10-------3-5-0-5-7-x-x-9-------3-5-0-5-7-x-x-|
||
Guitar 1 (starts on 2nd repeat of Guitar 2) 
C#|-----------------------------------------------|
G#|-----------------------------------------------|
E |-17---------------------16---------------------|
B |--x(x24)--3-5-0-5-7-x-x--x(x24)--3-5-0-5-7-x-x-|
F#|-15-------3-5-0-5-7-x-x-14-------3-5-0-5-7-x-x-|
B |----------3-5-0-5-7-x-x----------3-5-0-5-7-x-x-|

SECTION 3
Both Guitars
C#|------------------------------------------------------------|
G#|------------------------------------------------------------|
E |-17--17---------17--17---------17--17---------17--17--------|
B |--x---x-0-12-0---x---x-0-12-0---x---x-0-12-0---x---x-0-12-0-|
F#|-15--15-0-12-0--15--15-0-12-0--15--15-0-12-0--15--15-0-12-0-|
B |--------0-12-0---------0-12-0---------0-12-0---------0-12-0-|

C#|------------------------------------------------------------|
G#|------------------------------------------------------------|
E |-16--16---------16--16---------17--17---------17--17--------|
B |--x---x-0-12-0---x---x-0-12-0---x---x-0-12-0---x---x-0-12-0-|
F#|-14--14-0-12-0--14--14-0-12-0--15--15-0-12-0--15--15-0-12-0-|
B |--------0-12-0---------0-12-0---------0-12-0---------0-12-0-|

SECTION 4
Both Guitars (don't play notes in parentheses 1st time)
C#|-------------------------------------------------------------------|
G#|-------------------------------------------------------------------|
E |-------------------------------------------------------------------|
B |-------------------------------------------------------------------|x2
F#|---------------------------5---------------------------------------|
B |-(7-7-7)-0-0-0-0-0-0-8-7-0---7-5-7-8-8-8-1-1-1-1-1-1-4-4-4-4-4-4-4-|

SECTION 5
Guitar 2 only
C#|---------------------------------------------|
G#|---------------------------------------------|
E |---------------------------------------------|
B |---------------------------------------------|x2
F#|-3h5-----------3---3h5----3h5----------------|
B |-----0--3h5-0----0-----0------0--3h5-0-5-7-0-|

NOTE: The rhythm feels different on the 2nd repeat because the notes fall
on different beats for a different accent.

Both Guitars
C#|------------------------------------------------------------------------|
G#|------------------------------------------------------------------------|
E |------------------------------------------------------------------------|
B |-10h12-0--10p0-10h12-0--10p0-10h12-0--10h12-0-10p0-10h12-0-3-5-0-5-7-0--|x2
F#|-10h12-0--10p0-10h12-0--10p0-10h12-0--10h12-0-10p0-10h12-0-3-5-0-5-7-0--|
B |-10h12-0--10p0-10h12-0--10p0-10h12-0--10h12-0-10p0-10h12-0-3-5-0-5-7-0--|

REPEAT SECTION 3 (x2)
On the 2nd time an Extra Guitar plays the main riff (Section 1/4) with
heavy fuzz/octave...

SECTION 6
Both Guitars
C#|-----------------------------------------------------------------|
G#|-----------------------------------------------------------------|
E |-----------------------------------------------------------------|
B |-----------------------------------------------------------------|x2
F#|-------------------------5---------------------------------------|
B |-7-7-7-0-0-0-0-0-0-8-7-0---7-5-7-8-8-8-1-1-1-1-1-1-4-4-4-4-4-4-4-|

C#|---------------------------------------------------------|
G#|---------------------------------------------------------|
E |-14b-----------------------------------------------------|
B |--x--------8-7-0-4-7-0-7-8-8-8-1-1-1-1-1-1-4-4-4-4-4-4-4-|
F#|-12b-------8-7-0-4-7-0-7-8-8-8-1-1-1-1-1-1-4-4-4-4-4-4-4-|
B |-----0--0--8-7-0-4-7-0-7-8-8-8-1-1-1-1-1-1-4-4-4-4-4-4-4-|

C#|-----------------------------------------------------------------|
G#|-----------------------------------------------------------------|
E |-----------------------------------------------------------------|
B |-7-7-7-0-0-0-0-0-0-8-7-0-4-7-0-7-8-8-8-1-1-1-1-1-1---------------|
F#|-7-7-7-0-0-0-0-0-0-8-7-0-4-7-0-7-8-8-8-1-1-1-1-1-1---------------|
B |-7-7-7-0-0-0-0-0-0-8-7-0-4-7-0-7-8-8-8-1-1-1-1-1-1-4-4-4-4-4-4-4-|

C#|---------------------------------|
G#|---------------------------------|
E |---------------------------------|
B |---------------------------------|
F#|---------------------------------|
B |-3-3-3-3-3-3-3-3-1-1-1-1-1-1-1-1-|

SECTION 7
Guitar 1
C#|-----------------------------------------------------|
G#|-------------------------------------6---------------|
E |--------5----5--------------------5----5-------------|
B |----0-------------------------0----------0-----------|
F#|-/5---5----5---------------/5---5--------------------|
B |---------------7-6---1--3------------------5---1--3--|

Guitar 1
C#|-----------------------------------------------------|
G#|-------------------------------------6---------------|
E |--------5----5--------------------5----5-------------|
B |----0-------------------------0----------0-----------|
F#|-/5---5----5---------------/5---5--------------------|
B |---------------7-6---1--3------------------5---1--3--|
||
Guitar 2 (either a tremolo pedal, or fast tremolo picking on all notes)
C#|-----------------------------------------------------|
G#|-----------------------------------------------------|
E |-7---------------------------------------------------|
B |-----------------------------------------------------|
F#|-----------------------------------------------------|
B |-----------------------------------------------------|

Guitar 1
C#|-----------------------------------------------------|
G#|-------------------------------------6---------------|
E |--------5----5--------------------5----5-------------|
B |----0-------------------------0----------0-----------|
F#|-/5---5----5---------------/5---5--------------------|
B |---------------7-6---1--3------------------5---1--3--|
||
Guitar 2
C#|-----------------------------------------------------|
G#|------------------------------------------11----8----|
E |-7-----------------------------------------8----5----|
B |-0-----------------------------------------0----0----|
F#|-----------------------------------------------------|
B |-----------------------------------------------------|

Guitar 1
C#|-------------------------------------------|
G#|-------------------------------------------|
E |-----5h7p0---------5h7p0---------5h7p0-----|
B |-----------3p0-----------3p0-----------3p0-|x6
F#|-3h5-----------3h5-----------3h5-----------|
B |-------------------------------------------|
||
Guitar 2
C#|-----------------------------------------------------|
G#|------------------------------------------11----8----|
E |-7-----------------------------------------8----5----|
B |-0-----------------------------------------0----0----|x2
F#|-----------------------------------------------------|
B |-----------------------------------------------------|

SECTION 8
Guitar 1
C#|------------------------|
G#|------------------------|
E |-7-------10------7------|
B |-x-(x48)--x-(x9)-x-(x7)-|
F#|-5--------8------5------|
B |------------------------|
||
Guitar 2
C#|------------------------|
G#|------------------------|
E |-7-(x48)--8-(x8)-5-(x8)-|
B |------------------------|
F#|------------------------|
B |------------------------|

Guitar 1
C#|-------------------------------------------------------------------|
G#|-------------------------------------------------------------------|
E |-7-1010101010101010-8-8-7-7-7-7-7-7-12121212121212121010-7-7-7-7-7-|
B |-x--x-x-x-x-x-x-x-x-x-x-x-x-x-x-x-x--x-x-x-x-x-x-x-x-x-x-x-x-x-x-x-|
F#|-5--8-8-8-8-8-8-8-8-6-6-5-5-5-5-5-5-1010101010101010-8-8-5-5-5-5-5-|
B |-------------------------------------------------------------------|

C#|------------------------------------------------------------------|
G#|------------------------------------------------------------------|
E |-7-14141414141414141010101010101015151515151515151010101010101010-|
B |-x--x-x-x-x-x-x-x-x-x-x-x-x-x-x-x-x-x-x-x-x-x-x-x-x-x-x-x-x-x-x-x-|
F#|-5-1212121212121212-8-8-8-8-8-8-81313131313131313-8-8-8-8-8-8-8-8-|
B |------------------------------------------------------------------|
||
Guitar 2
C#|-----------------------|
G#|-----------------------|
E |-7-(x48)--8-(x16)------|
B |----------slowly-bend--|
F#|-----------------------|
B |-----------------------|

SECTION 9
Both Guitars
C#|------------------------------------------------------------------------|
G#|------------------------------------------------------------------------|
E |------------------------------------------------------------------------|
B |------------------------------------------------------------------------|x2
F#|-------------------------5----------------------------------------------|
B |-7-7-7-0-0-0-0-0-0-8-7-0---7-5-7-8-8-8-1-1-1-1-1-1-4b-4b-4b-4b-4b-4b-4b-|
C#|---------------------------------------------------------|
G#|---------------------------------------------------------|
E |---------------------------------------------------------|
B |-----0--0--8-7-0-4-7-0-7-8-8-8-1-1-1-1-1-1-4-4-4-4-4-4-4-|
F#|-----0--0--8-7-0-4-7-0-7-8-8-8-1-1-1-1-1-1-4-4-4-4-4-4-4-|
B |-7b--0--0--8-7-0-4-7-0-7-8-8-8-1-1-1-1-1-1-4-4-4-4-4-4-4-|

C#|-----------------------------------------------------------------|
G#|-----------------------------------------------------------------|
E |-----------------------------------------------------------------|
B |-7-7-7-0-0-0-0-0-0-8-7-0-4-7-0-7-8-8-8-1-1-1-1-1-1-4-4-4-4-3-3-3-|
F#|-7-7-7-0-0-0-0-0-0-8-7-0-4-7-0-7-8-8-8-1-1-1-1-1-1-4-4-4-4-3-3-3-|
B |-7-7-7-0-0-0-0-0-0-8-7-0-4-7-0-7-8-8-8-1-1-1-1-1-1-4-4-4-4-3-3-3-|

Guitar 1
C#|-------------------------------------------|
G#|-------------------------------------------|
E |-----5h7p0---------5h7p0---------5h7p0-----|
B |-----------3p0-----------3p0-----------3p0-|x10
F#|-3h5-----------3h5-----------3h5-----------|
B |-------------------------------------------|
||
Guitar 2
C#|---------------------------------|
G#|---------10-------11------8------|
E |-7--------7--------8------5------|
B |-0-(x32)--0-(x16)--0-(x8)-0-(x8)-|
F#|---------------------------------|
B |---------------------------------|
||
Extra Guitar
C#|---------------------------------------------------------------------------------|
G#|---------------------------------------------------------------------------------|
E |---------------------------------------------------------------------------------|
B |-7-7-7-0-0-0-0-0-0-8-7-0-4-7-0-7-8-8-8-1-1-1-1-1-1-------------------------------|
F#|-7-7-7-0-0-0-0-0-0-8-7-0-4-7-0-7-8-8-8-1-1-1-1-1-1-------------------------------|
B |-7-7-7-0-0-0-0-0-0-8-7-0-4-7-0-7-8-8-8-1-1-1-1-1-1-4-4-4-4-4-4-4-3-3-3-3-3-3-3-3-|

Both Guitars
C#|------------------------------------|
G#|------------------------------------|
E |------------------------------------|
B |---6b7-------------x-x-x-x----------|
F#|---x---------------x-x-x-x----------|
B |-0-6b7-0--(bass)---x-x-x-x--(bass)--|

This should be all pretty close but there is a lot of guitar layering,
so if you have any recommendations, let me know.
Please rate & comment.
Thanks,
millarso

************************************

| /   slide up
| \   slide down
| h   hammer-on
| p   pull-off
| ~   vibrato
| <>  harmonic
| x   Mute note
| b   Bend
| pb  Pre-bend
| br  Bend release
| pbr Pre-bend release
| brb Bend release bend

************************************
Tap to rate this tab
# A B C D E F G H I J K L M N O P Q R S T U V W X Y Z