Song name
# A B C D E F G H I J K L M N O P Q R S T U V W X Y Z

Norma Jean - Neck In The Hemp tab

----------------------------------
   Neck In The Hemp - Norma Jean
----------------------------------
Tabbed by: millarso (Jake Miller)
E-mail: millarso2.0@gmail.com

Tuning: Drop Db (Drop D half step down)

Guitar 1: Left Channel
Guitar 2: Right Channel

SECTION 1
Guitar 1 only
Eb|----------------------------------|
Bb|----------------------------------|
Gb|----------------------------------|
Db|-5---5-----5---5-----5---5--------|x2
Ab|-x-xxx-xxxxx-xxx-xxxxx-xxx-xxxxxx-|
Db|-5-xx5-xxxx5-xx5-xxxx5-xx5-xxxxxx-|

Guitar 1
Eb|----------------------------------|
Bb|----------------------------------|
Gb|----------------------------------|
Db|-5---5-----5---5-----5---5--------|x2
Ab|-x-xxx-xxxxx-xxx-xxxxx-xxx-xxxxxx-|
Db|-5-xx5-xxxx5-xx5-xxxx5-xx5-xxxxxx-|
||
Guitar 2
Eb|----------------------------------------|
Bb|----------------------------------------|
Gb|----------------------------------------|
Db|-----8--b10rbrbrbrbrb---10--b12rbrbrbrb-|
Ab|----------------------------------------|
Db|----------------------------------------|

Both Guitars
Eb|----------------------------------|
Bb|----------------------------------|
Gb|----------------------------------|
Db|-5---5-----5---5-----5---5--------|x2
Ab|-x-xxx-xxxxx-xxx-xxxxx-xxx-xxxxxx-|
Db|-5-xx5-xxxx5-xx5-xxxx5-xx5-xxxxxx-|

SECTION 2
Eb|---------------------------------------------------------------------------------------------|
Bb|---------------------------------------------------------------------------------------------|
Gb|---------------------------------------------------------------------------------------------|
Db|-7--7--7--7--3-3-2-2-1-1-3---8--8-8-8-8-8-8-7--7-7-7-7-7-7---1/4-----------4-------1-1/4-4---|
Ab|-4--4--4--4--x-x-x-x-x-x-x-0-5--5-5-5-5-5-5-5--5-5-5-5-5-5---x-------------x-------x-x---x---|
Db|-4--4--4--4--3-3-2-2-1-1-3-0-5--5-5-5-5-5-5-5--5-5-5-5-5-5-0-1/4-4-4-4-4-4-4-4-4-4-1-1/4-4-0-|
                              .    . . . . . .    . . . . . .       . . . . .   . . .

Guitar 1
Eb|-----------------------------------------------------------------|
Bb|-----------------------------------------------------------------|
Gb|-------------------5-5-3-3-6-6\2---------------------------------|
Db|-8--8-8-8-8-8-8-7----------------1/4-----------8-8\5-5\1-1/4-4/8-|
Ab|-5--5-5-5-5-5-5-5----------------x-------------x-x---x---x---x---|
Db|-5--5-5-5-5-5-5-5----------------1/4-4-4-4-4-4-8-8\5-5\1-1/4-4/8-|
||     . . . . . .                      . . . . .
||
Guitar 2
Eb|-----------------------------------------------------------------|
Bb|-----------------------------------------------------------------|
Gb|-----------------------------------------------------------------|
Db|-8--8-8-8-8-8-8-7--7-7-5-5-8-8\4-1/4-----------8-8/5-5/1-1/4-4/8-|
Ab|-5--5-5-5-5-5-5-5----------------x-------------x-x---x---x---x---|
Db|-5--5-5-5-5-5-5-5----------------1/4-4-4-4-4-4-8-8/5-5/1-1/4-4/8-|
       . . . . . .                      . . . . .

REPEAT SECTION 2 from the first 8-5-5

TRANSITION
Both Guitars
Eb|-----------------------------|
Bb|-----------------------------|
Gb|-----------------------------|
Db|-8--8---8--7---\\\\\\\\\\\\--|
Ab|-5--5---5--5---\pick-slide\--|
Db|-5--5---5--5---\\\\\\\\\\\\--|

SECTION 3
Both Guitars
Eb|---------------------------------|
Bb|---------------------------------|
Gb|---------------------------------|
Db|-1-4-4-4-4-4-4-4-4-4-4-0-1-4-4-0-|
Ab|-1-4-4-4-4-4-4-4-4-4-4-0-1-4-4-0-|
Db|-1-4-4-4-4-4-4-4-4-4-4-0-1-4-4-0-|

Guitar 1                                                             1st time only
Eb|-----------------------------------------------------------------|------------------------|
Bb|-----------------------------------------------------------------|------------------------|
Gb|-------------------5-5-3-3-6-6\2---------------------------------|------------------------|
Db|-8-8-8-8-8-8-8-7-7---------------1-4-4-4-4-4-4-8-8/5-5/1-1/4-4/8-|------------------------|
Ab|-5-5-5-5-5-5-5-5-5---------------1-4-4-4-4-4-4-x-x---x---x---x---|------------------------|
Db|-5-5-5-5-5-5-5-5-5---------------1-4-4-4-4-4-4-8-8/5-5/1-1/4-4/8-|-8~--8~-8/10-7~--7~--8\-|
||
Guitar 2                                                             1st time only
Eb|-----------------------------------------------------------------|-------------------------|
Bb|-----------------------------------------------------------------|-------------------------|
Gb|-----------------------------------------------------------------|-------------------------|
Db|-8-8-8-8-8-8-8-7-7-7-7-5-5-8-8\4-1-4-4-4-4-4-4-8-8/5-5/1-1/4-4/8-|-------------------------|
Ab|-5-5-5-5-5-5-5-5-5---------------1-4-4-4-4-4-4-x-x---x---x---x---|-------------------------|
Db|-5-5-5-5-5-5-5-5-5---------------1-4-4-4-4-4-4-8-8/5-5/1-1/4-4/8-|-12~-12~-121212~-12~-12\-|

SECTION 4
Both Guitars (Only Guitar 2 plays parentheses)
Eb|--------------------------------|
Bb|--------------------------------|
Gb|(7)-(7)--(7)-(6)--(7)-(7)-------|
Db|-5---5\---5---4\---5---5--------|x3
Ab|-5-xx5\-xx5-xx4\-xx5-xx5-xxxxxx-|
Db|-5-xx5\-xx5-xx4\-xx5-xx5-xxxxxx-|

Eb|--------------------------------|
Bb|--------------------------------|
Gb|(7)-(7)--(7)-(6)----------------|
Db|-5---5\---5---4\----------------|
Ab|-5-xx5\-xx5-xx4\----------------|
Db|-5-xx5\-xx5-xx4\-(guitar-noise)-|

SECTION 5
Guitar 1
Eb|------------------------------------------------8-8-8-8-6-6-6-|
Bb|------------------------------------------------x-x-x-x-x-x-x-|
Gb|------------------------------------------------5-5-5-5-3-3-3-|x2
Db|-8--5-5-5-5-5-5-5-5-5-5---1/3--8--4-4-4-4-4-4-4---------------|
Ab|-8--5-5-5-5-5-5-5-5-5-5-xx1/3--8--4-4-4-4-4-4-4---------------|
Db|-8--5-5-5-5-5-5-5-5-5-5-xx1/3--8--4-4-4-4-4-4-4---------------|
||
Guitar 1
Eb|--------------------------------------------------------------|
Bb|--------------------------------------------------------------|
Gb|--------------------------------------------------------------|
Db|-8--5-5-5-5-5-5-5-5-5-5---1/3--8--4-4-4-4-4-4-----------------|x2
Ab|-8--5-5-5-5-5-5-5-5-5-5-xx1/3--8--4-4-4-4-4-4-----------------|
Db|-8--5-5-5-5-5-5-5-5-5-5-xx1/3--8--4-4-4-4-4-4-3-3\2-2\1-1/3-0-|

Both Guitars
Eb|--------------------------------------------------------|
Bb|--------------------------------------------------------|
Gb|--------------------------------------------------------|
Db|-8--5-5--5--5--5--5-0-1/3--8--4-4--4--4\3-3\2-2\1-1/3-0-|
Ab|-8--5-5--5--5--5--5-0-1/3--8--4-4--4--4\3-3\2-2\1-1/3-0-|
Db|-8--5-5--5--5--5--5-0-1/3--8--4-4--4--4\3-3\2-2\1-1/3-0-|
||
Extra Guitar (place some random bends in the octaves for good measure)
Eb|-15-------14-----------------------------|
Bb|--x-(x15)--x-(x15)-----------------------|
Gb|-12-------11-----------------------------|
Db|-----------------------------------------|
Ab|-----------------------------------------|
Db|-----------------------------------------|

SECTION 6
Both Guitars
Eb|--------------------------------------|
Bb|--------------------------------------|
Gb|-12---12\---12---12\---12---12--------|
Db|--x----x-----x---x------x----x--------|x2
Ab|-10-xx10\-xx10-xx10\-xx10-xx10-xxxxxx-|
Db|----xx----xx---xx----xx---xx---xxxxxx-|

Guitar 1
Eb|--------------------------------------------------------------------------|
Bb|--------------------------------------------------------------------------|
Gb|-15---15\---15---15\---15---15--------19---19\---19---19\---19---19-------|
Db|--x----x-----x---x------x----x---------x----x-----x----x-----x----x-------|
Ab|-13-xx13\-xx13-xx13\-xx13-xx13-xxxxxx-17-xx17\-xx17-xx17\-xx17-xx17-xxxxxx|
Db|----xx----xx---xx----xx---xx---xxxxxx----xx----xx---xx----xx---xx---------|
||
Guitar 2
Eb|--------------------------------------|
Bb|--------------------------------------|
Gb|-12---12\---12---12\---12---12--------|
Db|--x----x-----x---x------x----x--------|x2
Ab|-10-xx10\-xx10-xx10\-xx10-xx10-xxxxxx-|
Db|----xx----xx---xx----xx---xx---xxxxxx-|

SECTION 7
Guitar 1
Eb|---------------------------------------------|
Bb|---------------------------------------------|
Gb|---------------------------------------------|
Db|-7--7-7--7--7--7--7-7--7---7-7--7--7--7--7-7-|
Ab|-4--4-4--4--4--4--4-4--4---4-4--4--4--4--4-4-|
Db|-4--4-4--4--4--4--4-4--4---4-4--4--4--4--4-4-|
||
Guitar 2
Eb|---------------------------------------------|
Bb|---------------------------------------------|
Gb|---------------------------------------------|
Db|-8--8-8--8--8--8--8-8--8---8-8--8--8--8--8-8-|
Ab|-4--4-4--4--4--4--4-4--4---4-4--4--4--4--4-4-|
Db|-4--4-4--4--4--4--4-4--4---4-4--4--4--4--4-4-|

SECTION 8
Guitar 1
Eb|--------------------------|
Bb|--------------------------|
Gb|-7b-----------7b----------|
Db|-5b-----------5b----------|
Ab|-----0000000------00000-0-|
Db|-----0000000------00000-0-|
||      .......      ..... .
||
Guitar 2
Eb|--------------------------|
Bb|-8b-----------8b----------|
Gb|-7b-----------7b----------|
Db|--------------------------|
Ab|-----0000000------00000-0-|
Db|-----0000000------00000-0-|
        .......      ..... .

Guitar 1
Eb|------------------------------------------------------------------------------------------|
Bb|------------------------------------------------------------------------------------------|
Gb|----------------------5b-------------------------------------------------------7b---------|
Db|----------------------5b-------------------------------------------------------7b---------|
Ab|--------------------------------------------------------------------9b--------------------|
Db|-0000000---00000-0-0-----0000000---00000-0-0----0000000---00000-0-0----0000000----00000-0-|
||
Guitar 2
Eb|------------------------------------------------------------------------------------------|
Bb|------------------------------------------------------------------------------------------|
Gb|---------------------------------------------6b-------------------------------------------|
Db|---------------------------------------------6b---------------------6b--------------------|
Ab|--------------------------------------------------------------------6b--------------------|
Db|-0000000---00000-0-0-----0000000---00000-0-0----0000000---00000-0-0----0000000----00000-0-|

SECTION 7
Both Guitars
Eb|-----------------------------------------------------------------|
Bb|-----------------------------------------------------------------|
Gb|-0-0-0-0-0-0-0-0-0-0-0-0-0-0-0-0-0-0-0-0-0-0-0-0-0-0-0-0-0-0-0-0-|
Db|-5-5-5-5-5-5-5-5-5-5-5-5-5-5-5-5/8-8-8-8-8-8-8-8-3-3-3-3-6-6-6-6-|
Ab|-----------------------------------------------------------------|
Db|-----------------------------------------------------------------|

Guitar 1
Eb|-----------------------------------------------------------------|
Bb|-----------------------------------------------------------------|
Gb|-----------------------------------------------------------------|
Db|-5-------------5---------------5-1/4-----------8-8\5-5\1-1/4-4/8-|
Ab|-5-5-5-5-5-5-5-5-5-5-5-5-5-5-5-5-1/4-4-4-4-4-4-8-8\5-5\1-1/4-4/8-|
Db|-5-5-5-5-5-5-5-5-5-5-5-5-5-5-5-5-1/4-4-4-4-4-4-8-8\5-5\1-1/4-4/8-|
||
Guitar 2
Eb|-----------------------------------------------------------------|
Bb|-----------------------------------------------------------------|
Gb|-0-0-0-0-0-0-0-0-0-0-0-0-0-0-0-0-0-0-0-0-0-0-0-0-0-0-0-0-0-0-0-0-|
Db|-5-5-5-5-5-5-5-5-5-5-5-5-5-5-5-5/8-8-8-8-8-8-8-8-3-3-3-3-6-6-6-6-|
Ab|-----------------------------------------------------------------|
Db|-----------------------------------------------------------------|

Both Guitars
Eb|---------------------------------------------------------|
Bb|---------------------------------------------------------|
Gb|---------------------------------------------------------|
Db|-8--8---8--7--7-7-7-7-7-7-0-1/4-4--4-4--4--4-4-0-1-4-4-0-|
Ab|-5--5---5--5--5-5-5-5-5-5-0-1/4-4--4-4--4--4-4-0-1-4-4-0-|
Db|-5--5---5--5--5-5-5-5-5-5-0-1/4-4--4-4--4--4-4-0-1-4-4-0-|

Eb|----------------------------------------------------------------|
Bb|----------------------------------------------------------------|
Gb|----------------------------------------------------------------|
Db|-8--8--8-8--7--7-7-7-7-7-7-7-1/4-4--4-4-4-8-8-5-5-1-1-4-4-8-5-\-|
Ab|-5--5--5-5--5--5-5-5-5-5-5-5-1/4-4--4-4-4-x-x-x-x-x-x-x-x-x-5-\-|
Db|-5--5--5-5--5--5-5-5-5-5-5-5-1/4-4--4-4-4-8-8-5-5-1-1-4-4-8-5-\-|

There are a lot of riffs that carry into various parts of the song,
so once you get the feel of them, the whole song should go fairly smoothly.
Have fun.
Please rate & comment.
Thanks,
millarso

************************************

| /   slide up
| \   slide down
| h   hammer-on
| p   pull-off
| ~   vibrato
| <>  harmonic
| x   Mute note
| b   Bend
| pb  Pre-bend
| br  Bend release
| pbr Pre-bend release
| brb Bend release bend

************************************
Tap to rate this tab
 
# A B C D E F G H I J K L M N O P Q R S T U V W X Y Z