Song name
# A B C D E F G H I J K L M N O P Q R S T U V W X Y Z

Norma Jean - Wrongdoers tab

----------------------------
  Wrongdoers - Norma Jean
----------------------------
Tabbed by: millarso (Jake Miller)
E-mail: millarso2.0@gmail.com

Tuning: Drop B

Guitar 1 (Left Channel)
Guitar 2 (Right Channel)

SECTION 1
Guitar 1
C#|--------------------------------------------------|
G#|-6---6-6-6---6-6-6---6-6-8/1010101010101010101010-|
E |-7---7-7-7---7-7-7---7-7-x--x-x-x-x-x-x-x-x-x-x-x-|
B |-7---7-7-7---7-7-7---7-7-5/-7-7-7-7-7-7-7-7-7-7-7-|
F#|-5---5-5-5---5-5-5---5-5--------------------------|
B |--------------------------------------------------|
||
Guitar 2 (gently rake the first chord and let it ring)
C#|-----5--------------------------------------------|
G#|----6--------------------101010101010101010101010-|
E |---7----------------------x-x-x-x-x-x-x-x-x-x-x-x-|
B |--7-----------------------8-8-8-8-8-8-8-8-8-8-8-8-|
F#|-5------------------------------------------------|
B |--------------------------------------------------|

Guitar 1
C#|-5---5-5-5---5-5-5---5-5----------------------------------------|
G#|-6---6-6-6---6-6-6---6-6-8/1010101010101010101010-6/88888888888-|
E |-7---7-7-7---7-7-7---7-7-x--x-x-x-x-x-x-x-x-x-x-x-x-xxxxxxxxxxx-|
B |-7---7-7-7---7-7-7---7-7-5/-7-7-7-7-7-7-7-7-7-7-7-3/55555555555-|
F#|-5---5-5-5---5-5-5---5-5----------------------------------------|
B |----------------------------------------------------------------|
||
Guitar 2
C#|-5---5-5-5---5-5-5---5-5---------------------------------------|
G#|-6---6-6-6---6-6-6---6-6-101010101010101010101010-888888888888-|
E |-7---7-7-7---7-7-7---7-7--x-x-x-x-x-x-x-x-x-x-x-x-xxxxxxxxxxxx-|
B |-7---7-7-7---7-7-7---7-7--8-8-8-8-8-8-8-8-8-8-8-8-555555555555-|
F#|-5---5-5-5---5-5-5---5-5---------------------------------------|
B |---------------------------------------------------------------|

Guitar 1
C#|--------------------------------------------------------------------------------------------|
G#|-------------------------8/1010101010101010101010-6/88888888888-----------------------------|
E |-------------------------x--x-x-x-x-x-x-x-x-x-x-x-x-xxxxxxxxxxx-5/77777777777-4/55555555555-|
B |-------------------------5/-7-7-7-7-7-7-7-7-7-7-7-3/55555555555-x-xxxxxxxxxxx-x-xxxxxxxxxxx-|
F#|----------------------------------------------------------------3/55555555555-2/33333333333-|
B |-0---0-0-0---0-0-0---0-0--------------------------------------------------------------------|
||
Guitar 2
C#|-----------------------------------------------------------------------------------------|
G#|-------------------------101010101010101010101010-888888888888---------------------------|
E |--------------------------x-x-x-x-x-x-x-x-x-x-x-x-xxxxxxxxxxxx-777777777777-999999999999-|
B |--------------------------8-8-8-8-8-8-8-8-8-8-8-8-555555555555-xxxxxxxxxxxx-xxxxxxxxxxxx-|
F#|---------------------------------------------------------------555555555555-777777777777-|
B |-0---0-0-0---0-0-0---0-0-----------------------------------------------------------------|

Guitar 1
C#|------------------------|
G#|------------------------|
E |------------------------|
B |------------------------|
F#|------------------------|
B |-3-7-7-7-7---3-7-7-7-7\-|

SECTION 2
Both Guitars
C#|------------------------------------------------|
G#|------------------------------------------------|
E |------------------------------------------------|
B |-0-3-3-3-3---0-3-3-0-3---0-3-3-3-3---8-8---8-8\-|x2
F#|-0-x-x-x-x---0-x-x-0-x---0-x-x-x-x---x-x---x-x\-|
B |-0-3-3-3-3---0-3-3-0-3---0-3-3-3-3---8-8---8-8\-|

Guitar 1
C#|---------------------|
G#|---------------------|
E |---------------------|
B |---------------------|
F#|---------------------|
B |-0---0-0-0b1r0---0-0-|

NOTE: Don't know how to play a bent 0? Try pressing down on the bottom string right
above the nut, or pull back slightly on the neck.

Both Guitars
C#|------------------------------------------------|
G#|------------------------------------------------|
E |------------------------------------------------|
B |-0-3-3-3-3---0-3-3-0-3---0-3-3-3-3---8-8---8-8\-|
F#|-0-x-x-x-x---0-x-x-0-x---0-x-x-x-x---x-x---x-x\-|
B |-0-3-3-3-3---0-3-3-0-3---0-3-3-3-3---8-8---8-8\-|

C#|-----------------------------------|
G#|-----------------------------------|
E |-----------------------------------|
B |-0---0-0-0---0-0-0---0-0-0---0-0---|
F#|-0---0-0-0---0-0-0---0-0-0---0-0-0-|
B |-0---0-0-0---0-0-0---0-0-0---0-0-0-|
                                    .
SECTION 3
Extra Guitar (plays over whole section, starts at last note of SECTION 2)
C#|------------------------------------------------------------------------------------------|
G#|-10-10-10-10-10-10-10-10-10-10-10-10-10-10-10-10-/13-13-13-13-13-13-13-13-6-6-6-6-6-6-6-6-|
E |-10-10-10-10-10-10-10-10-10-10-10-10-10-10-10-10-/14-14-14-14-14-14-14-14-7-7-7-7-7-7-7-7-|
B |--^--------^--------^-----^--------^--------^------^--------^--------^----^-----^-----^---|
F#|------------------------------------------------------------------------------------------|
B |------------------------------------------------------------------------------------------|

NOTE: Accent where I put the caret signs up above. Feel free to strum this pretty freely
because it doesn't necessarily sound like quarter notes all the way through. Hard to tell

Both Guitars
C#|-----------------------------------|
G#|-----------------------------------|
E |-----------------------------------|
B |-----------------------------------|
F#|-----------------------------------|
B |--0--------------3--------8--------|
||
Extra Guitar
C#|-----------------------------------|
G#|-10-------------13-----------------|
E |-10-(x16)-------14-(x8)---7-(x8)---|
B |-----------------------------------|
F#|-----------------------------------|
B |-----------------------------------|

Both Guitars
C#|------------------------------------|
G#|------------------------------------|
E |------------------------------------|
B |------------------------------------|
F#|------------------------------------|
B |--0----0-0-------3---------7-8----7-|
||
Extra Guitar
C#|------------------------------------|
G#|-10-------------13--------15--------|
E |-10-(x16)-------14-(x8)---15-(x8)---|
B |------------------------------------|
F#|------------------------------------|
B |------------------------------------|

Both Guitars
C#|------------------------------------------------|
G#|------------------------------------------------|
E |------------------------------------------------|
B |------------------------------------------------|
F#|------------------------------------------------|
B |--0---0-0-0-0-0---2---3---3-3-3-3-7--8--8-8-8-8-|
||
Extra Guitar (really not sure about this part??? suggestions?)
C#|-17-13----17-13---17-13---17-13-17-13--13--17-------------------|
G#|------15-------15------15------------15----15-(x16,slowly-bend)-|
E |--------14---------------------------------14-------------------|
B |----------------------------------------------------------------|
F#|----------------------------------------------------------------|
B |----------------------------------------------------------------|

SECTION 4
Guitar 1
C#|--------------------------------------------------------------------------------|
G#|--------------------------------------------------------------------------------|
E |-------------------------------------------------------------5\3--3-3-3-3-3-3-3-|
B |-0-------------10-0-10-7-0-----------------------------1-----x-x--x-x-x-x-x-x-x-|x2
F#|-0----0000---0010-0-10-7-0--000-000-00-----------------1---003-1--1-1-1-1-1-1-1-|
B |-0----0000---0010-0-10-7-0--000-000-00/5-5-5-5-7-7-7-7-1---00-------------------|
||       ....   ..             ... ... ..                     ..
||
Guitar 2
C#|--------------------------------------------------------------------------------|
G#|--------------------------------------------------------------------------------|
E |-------------------------------------------------------------5\3--3-3-3-3-3-3-3-|
B |-0-------------10-0-10-7-0-----------------------------1-----x-x--x-x-x-x-x-x-x-|x2
F#|-0----0000---0010-0-10-7-0--000-000-00-----------------1---003-1--1-1-1-1-1-1-1-|
B |-0----0000---0010-0-10-7-0--000-000-00/8-8-8-8-3-3-3-3-1---00-------------------|
||       ....   ..             ... ... ..                     ..
||
Extra Guitar (plays only 2nd time)
C#|------------------------------------------|
G#|------------------------------------------|
E |------------------------------------------|
B |-0/7-7-7-7\-0-7-7-7-7\-0-7-7-7-0/7-7-7-7\-|
F#|------------------------------------------|
B |------------------------------------------|

Guitar 1
C#|-----------------------------------------------------------------|
G#|-----------------------------------------------------------------|
E |-----------------------------------------------------------------|
B |-7b----7b-----7b---7---------------------------------------------|
F#|-5b----5b-----5b---5b--------------------------------------------|
B |----0-----0-0----0----0--7-7-7-7-7-7-7-7-12-12-12-12-12-12-12-12-|
||
Guitar 2
C#|---------------------------------------------------------|
G#|---------------------------------------------------------|
E |---------------------------------------------------------|
B |-7b----7b-----7b---7-------------------------------------|
F#|-5b----5b-----5b---5b------------------------------------|
B |----0-----0-0----0----0--3-3-3-3-3-3-3-3-8-8-8-8-8-8-8-8-|

Guitar 1
C#|--------------------------------------------------------------------------------|
G#|--------------------------------------------------------------------------------|
E |-------------------------------------------------------------5\3--3-3-3-3-3-3-3-|
B |-0-------------10-0-10-7-0-----------------------------1-----x-x--x-x-x-x-x-x-x-|x2
F#|-0----0000---0010-0-10-7-0--000-000-00-----------------1---003\1--1-1-1-1-1-1-1-|
B |-0----0000---0010-0-10-7-0--000-000-00/5-5-5-5-7-7-7-7-1---00-------------------|
||       ....   ..             ... ... ..                     ..
||
Guitar 2
C#|--------------------------------------------------------------------------------|
G#|--------------------------------------------------------------------------------|
E |-------------------------------------------------------------5\3--3-3-3-3-3-3-3-|
B |-0-------------10-0-10-7-0-----------------------------1-----x-x--x-x-x-x-x-x-x-|x2
F#|-0----0000---0010-0-10-7-0--000-000-00-----------------1---003\1--1-1-1-1-1-1-1-|
B |-0----0000---0010-0-10-7-0--000-000-00/8-8-8-8-3-3-3-3-1---00-------------------|
         ....   ..             ... ... ..                     ..

TRANSITION
C#|---------------------------------------------|
G#|---------------------------------------------|
E |---------------------------------------------|
B |-0/7-7-7-7\-0/7-7-7-7\-0/7-7-7-7\-0/7-7-7-7\-|
F#|---------------------------------------------|
B |---------------------------------------------|

SECTION 5
Both Guitars
C#|-------------------------------------------|
G#|-------------------------------------------|
E |-------------------------------------------|
B |--------------------------------8-8---8-8\-|
F#|--------------------------------x-x---x-x\-|
B |-(bass-/-drums-/-guitar-noise)--8-8---8-8\-|

C#|------------------------------------------------|
G#|------------------------------------------------|
E |------------------------------------------------|
B |-0-3-3-3-3---0-3-3-0-3---0-3-3-3-3---8-8---8-8\-|x2
F#|-0-x-x-x-x---0-x-x-0-x---0-x-x-x-x---x-x---x-x\-|
B |-0-3-3-3-3---0-3-3-0-3---0-3-3-3-3---8-8---8-8\-|

C#|------------------------------------------------|
G#|------------------------------------------------|
E |------------------------------------(Guitar-2)--|
B |-0----0--0--0----0--0--0----0--0--(3-3-3-3-3-3)-|
F#|-0----0--0--0----0--0--0----0--0--(3-3-3-3-3-3)-|
B |-0----0--0--0----0--0--0----0--0--(3-3-3-3-3-3)-|

SECTION 6
Guitar 1
C#|-----------------------------------------------------3\1--|
G#|-------------------------------------5---5b6r5------------|
E |-----2-----5---2---------5-2-0-----5----------------------|
B |-0-3---0-0---3---0---0-3-------3-0-----0-------0-3-3(0)---|
F#|-------------------3---------------------------------^----|
B |--------------------------------(let-the-string-ring-open)|
||
Guitar 2
C#|-5-----5-----5----------------------5---5----------1-----1-1h3-|
G#|---6-----6-----6---------------------------3-5---3-----3-------|
E |-----7-----7-----7-5---------------------------3-----3---------|
B |---------------------7-5-3-5-----0h3--3------------------------|
F#|-----------------------------3-5-------------------------------|
B |---------------------------------------------------------------|

Guitar 1
C#|---------------------------------------------------8-------------|
G#|-------------------------------------5---5b6r5---6---6---6-8-6---|
E |-----2-----5---2---------5-2-0-----5---------------------------7-|
B |-0-3---0-0---3---0---0-3-------3-0-----0-------0-------0---------|
F#|-------------------3---------------------------------------------|
B |-----------------------------------------------------------------|
||
Guitar 2
C#|-5-----5-----5----------------------5---5----------1-----1-1/-|
G#|---6-----6-----6---------------------------3-5---3-----3------|
E |-----7-----7-----7-5---------------------------3-----3--------|
B |---------------------7-5-3-5-----0h3--3-----------------------|
F#|-----------------------------3-5------------------------------|
B |--------------------------------------------------------------|

Guitar 1
C#|----------------------------------5h6p5-----------------------17--------------|
G#|-----10------8-----6-------5-6-8--------6--------8--/13-13--------13----------|
E |-----------------------5-7----------------7-7/10----/14----14--------14-------|
B |-7/8----10\7---7\5---5--------------------------------------------------15\10-|
F#|------------------------------------------------------------------------------|
B |------------------------------------------------------------------------------|
||
Guitar 2
C#|-17-------17-------17-------17--------------------------------------------------------|
G#|----18-------18-------18-------18----18-------13-------13-13/-------18-------18-------|
E |-------19-------19-------19-------19-------14-------14----14/----19-------19-------19-|
B |----------------------------------------15-------15-------15/-20-------20-------20----|
F#|--------------------------------------------------------------------------------------|
B |--------------------------------------------------------------------------------------|

Guitar 1
C#|-----------------------------------------------------------------10----10\8------|
G#|----10-------10------10------10----------10----13-------10-----------------------|
E |--------------------------------12-10-------------10-12----12-10----10-----------|
B |-(10)---12p10---12p10---12p10---------10----10------------------------------7/10-|
F#|---------------------------------------------------------------------------------|
B |---------------------------------------------------------------------------------|
||
Guitar 2
C#|-17-------17-------17-------17----------------------------------13----13----15----15\-|
G#|----18-------18-------18-------18----18-------13-------13----------15----15----18-----|
E |-------19-------19-------19-------19-------14-------14-------14-----------------------|
B |----------------------------------------15-------15-------15--------------------------|
F#|--------------------------------------------------------------------------------------|
B |--------------------------------------------------------------------------------------|

SECTION 7
Guitar 1
C#|---------------------------------------------------------------------------------|
G#|---------------------------------------------------------------------------------|
E |--------------------------------------------------------------5\3--3-3-3-3-3-3-3-|
B |-0-------------10-0-10-7-0-----------------------------1------x-x--x-x-x-x-x-x-x-|
F#|-0----0000---0010-0-10-7-0--000-000-00-----------------1--0-003-1--1-1-1-1-1-1-1-|
B |-0----0000---0010-0-10-7-0--000-000-00/5-5-5-5-7-7-7-7-1--0-00-------------------|
||       ....   ..             ... ... ..                    . ..
||
Guitar 2
C#|---------------------------------------------------------------------------------|
G#|---------------------------------------------------------------------------------|
E |--------------------------------------------------------------5\3--3-3-3-3-3-3-3-|
B |-0-------------10-0-10-7-0-----------------------------1------x-x--x-x-x-x-x-x-x-|
F#|-0----0000---0010-0-10-7-0--000-000-00-----------------1--0-003-1--1-1-1-1-1-1-1-|
B |-0----0000---0010-0-10-7-0--000-000-00/8-8-8-8-3-3-3-3-1--0-00-------------------|
||       ....   ..             ... ... ..                    . ..
||
Extra Guitar
C#|------------------------------------------|
G#|------------------------------------------|
E |------------------------------------------|
B |-0/7-7-7-7\-0-7-7-7-7\-0-7-7-7-0/7-7-7-7\-|
F#|------------------------------------------|
B |------------------------------------------|

Guitar 1
C#|-----------------------------------------------------------------|
G#|-----------------------------------------------------------------|
E |-----------------------------------------------------------------|
B |-7b----7b-----7b---7---------------------------------------------|
F#|-5b----5b-----5b---5b--------------------------------------------|
B |----0-----0-0----0----0--7-7-7-7-7-7-7-7-12-12-12-12-12-12-12-12-|
||
Guitar 2
C#|---------------------------------------------------------|
G#|---------------------------------------------------------|
E |---------------------------------------------------------|
B |-7b----7b-----7b---7-------------------------------------|
F#|-5b----5b-----5b---5b------------------------------------|
B |----0-----0-0----0----0--3-3-3-3-3-3-3-3-8-8-8-8-8-8-8-8-|

Guitar 1
C#|---------------------------------------------------------------------------------|
G#|---------------------------------------------------------------------------------|
E |--------------------------------------------------------------5\3--3-3-3-3-3-3-3-|
B |-0-------------10-0-10-7-0-----------------------------1------x-x--x-x-x-x-x-x-x-|
F#|-0----0000---0010-0-10-7-0--000-000-00-----------------1--0-003\1--1-1-1-1-1-1-1-|
B |-0----0000---0010-0-10-7-0--000-000-00/5-5-5-5-7-7-7-7-1--0-00-------------------|
||       ....   ..             ... ... ..                    . ..
||
Guitar 2
C#|---------------------------------------------------------------------------------|
G#|---------------------------------------------------------------------------------|
E |--------------------------------------------------------------5\3--3-3-3-3-3-3-3-|
B |-0-------------10-0-10-7-0-----------------------------1------x-x--x-x-x-x-x-x-x-|
F#|-0----0000---0010-0-10-7-0--000-000-00-----------------1--0-003\1--1-1-1-1-1-1-1-|
B |-0----0000---0010-0-10-7-0--000-000-00/8-8-8-8-3-3-3-3-1--0-00-------------------|
         ....   ..             ... ... ..                    . ..

SECTION 8
Guitar 1
C#|-----------------------------------------------|
G#|-----------------------------------------------|
E |-----------------------------------------------|
B |-----------------------------------------------|
F#|-----------------------------------------------|
B |----0-----0-0----0----0-----0----0-0----0----0-|
||
Guitar 2
C#|-----------------------------------------------|
G#|-----------------------------------------------|
E |-----------------------------------------------|
B |-7b----7b-----7b---7b----7b---7b-----7b---7b---|
F#|-5b----5b-----5b---5b----5b---5b-----5b---5b---|
B |----0-----0-0----0----0-----0----0-0----0----0-|

Guitar 1
C#|---------------------------------------------|
G#|---------------------------------------------|
E |---------------------------------------------|
B |-7b----7b-----7b---7b----7b---7b-----7b---7b-|
F#|-5b----5b-----5b---5b----5b---5b-----5b---5b-|
B |----0-----0-0----0----0-----0----0-0----0----|
||
Guitar 2
C#|---------------------------------------------|
G#|---------------------------------------------|
E |---------------------------------------------|
B |-7b----7b-----7b---7b----7b---7b-----7b---7b-|
F#|-5b----5b-----5b---5b----5b---5b-----5b---5b-|
B |---------------------------------------------|

Both Guitars
C#|-----------------------------------------------|
G#|-----------------------------------------------|
E |-----------------------------------------------|
B |-7b----7b-----7b---7b----7b---7b-----7b---7b---|x2
F#|-5b-0--5b-0-0-5b-0-5b-0--5b-0-5b-0-0-5b-0-5b-0-|
B |----0-----0-0----0----0-----0----0-0----0----0-|

Both Guitars
C#|-----------------------------------------------|
G#|-----------------------------------------------|
E |-7b----7b-----7b---7b----7b---7b-----7b---7b---|
B |-x-----x------x----x-----x----x------x----x----|x2
F#|-5b-0--5b-0-0-5b-0-5b-0--5b-0-5b-0-0-5b-0-5b-0-|
B |----0-----0-0----0----0-----0----0-0----0----0-|

Guitar 1
C#|-----------------------------------------|
G#|-----------------------------------------|
E |-----------------------------------------|
B |-----------------------------------------|
F#|-----------------------------------------|
B |-7-7-7-7-7-7-7-7-12-12-12-12-12-12-12-12-|
||
Guitar 2
C#|---------------------------------|
G#|---------------------------------|
E |---------------------------------|
B |---------------------------------|
F#|---------------------------------|
B |-3-3-3-3-3-3-3-3-8-8-8-8-8-8-8-8-|

SECTION 9
Guitar 1
C#|---------------------------------------------------------------------------------|
G#|---------------------------------------------------------------------------------|
E |--------------------------------------------------------------5\3--3-3-3-3-3-3-3-|
B |-0-------------10-0-10-7-0-----------------------------1------x-x--x-x-x-x-x-x-x-|
F#|-0----0000---0010-0-10-7-0--000-000-00-----------------1--0-003-1--1-1-1-1-1-1-1-|
B |-0----0000---0010-0-10-7-0--000-000-00/5-5-5-5-7-7-7-7-1--0-00-------------------|
||       ....   ..             ... ... ..                    . ..
||
Guitar 2
C#|---------------------------------------------------------------------------------|
G#|---------------------------------------------------------------------------------|
E |--------------------------------------------------------------5\3--3-3-3-3-3-3-3-|
B |-0-------------10-0-10-7-0-----------------------------1------x-x--x-x-x-x-x-x-x-|
F#|-0----0000---0010-0-10-7-0--000-000-00-----------------1--0-003-1--1-1-1-1-1-1-1-|
B |-0----0000---0010-0-10-7-0--000-000-00/8-8-8-8-3-3-3-3-1--0-00-------------------|
||       ....   ..             ... ... ..                    . ..
||
Extra Guitar
C#|------------------------------------------|
G#|------------------------------------------|
E |------------------------------------------|
B |-0/7-7-7-7\-0-7-7-7-7\-0-7-7-7-0/7-7-7-7\-|
F#|------------------------------------------|
B |------------------------------------------|

SECTION 10
Both Guitars (rhythm is kind of strange, listen to the track)
C#|-------------------------------------------|
G#|-------------------------------------------|
E |-------------------------------------------|
B |-------------------------------------------|
F#|-5b---5b--5b---5b--5b---5b---5b---5b--5b---|
B |----0----0---0---0----0----0---0-----0---0-|

Guitar 1
C#|-------------------------------------------|
G#|-------------------------------------------|
E |-------------------------------------------|
B |-------------------------------------------|
F#|-5b---5b--5b---5b--5b---5b---5b---5b--5b---|
B |----0----0---0---0----0----0---0-----0---0-|
||
Guitar 2
C#|-------------------------------------------|
G#|-------------------------------------------|
E |-------------------------------------------|
B |-------------------------------------------|
F#|-8b---8b--8b---8b--8b---8b---8b---8b--8b---|
B |----0----0---0---0----0----0---0-----0---0-|

Guitar 1
C#|-------------------------------------------|
G#|-------------------------------------------|
E |-------------------------------------------|
B |----------------------0----0---0-----0-----|
F#|----------------------0----0---0-----0-----|
B |----0----0---0---0----0----0---0-----0-----|
||
Guitar 2
C#|---------------------------------------------|
G#|---------------------------------------------|
E |-7b---7b--7b---7b--7b------------------------|
B |-7b---7b--7b---7b--7b-0----0---0-----0-------|
F#|-5b---5b--5b---5b--5b-0----0---0-----0-(7b8)-|
B |----0----0---0---0----0----0---0-----0-------|

Both Guitars
C#|-------------------------------------------|
G#|-------------------------------------------|
E |-7b---7b--7b---7b--7b---7b---7b---7b--7b---|
B |-7b---7b--7b---7b--7b---7b---7b---7b--7b---|x2
F#|-5b-0-5b-05b-0-5b0-5b-0-5b-0-5b0--5b-05b-0-|
B |----0----0---0---0----0----0---0-----0---0-|

C#|----------------------------------------|
G#|----------------------------------------|
E |-7b--7b-----7b--7b---7b---7b------------|
B |-7b--7b-----7b--7b-0-7b-0-7b-----0---0--|
F#|-5b--5b-----5b--5b-0-5b-0-5b-----0---0--|
B |-------------------0----0--------0---0--|

This song turned out to be a lot more work and difficulty than I was expecting,
but this should give you a pretty good idea of the song. SECTION 6 gets a little
crazy, so I can't make any promises there. Hope you enjoy.
Please rate & comment.
Thanks,
millarso

************************************

| /   slide up
| \   slide down
| h   hammer-on
| p   pull-off
| ~   vibrato
| +   harmonic
| x   Mute note
| b   Bend
| pb  Pre-bend
| br  Bend release
| pbr Pre-bend release
| brb Bend release bend

************************************
Tap to rate this tab
 
# A B C D E F G H I J K L M N O P Q R S T U V W X Y Z