Song name
# A B C D E F G H I J K L M N O P Q R S T U V W X Y Z

Norma Jean - Sun Dies Blood Moon tab

-------------------------------------
  Sun Dies, Blood Moon -Norma Jean
-------------------------------------
Tabbed by: millarso (Jake Miller)
E-mail: millarso2.0@gmail.com

Tuning: Drop C

Guitar 1: Left Channel (stereo)
Guitar 2: Right Channel

INTRO
Guitar 1 (clean, technically in both channels)
D|-------------0--------------------------------|
A|---------------0------------------------------|
F|---------0-----------------0-------0--0---0---|
C|-----0h2---2-----------0h2---2-/5-------4---0-|
G|----------------------------------------------|
C|-0-2-(let-ring)----0-2-(let-ring)-------------|

D|-------------0------0--------------------0-----------------|
A|---------------0--3---3--3---------3---------3-------------|
F|---------0-----------------0---------0---------0---------0-|
C|-----0h2---2-------------------4h5-----4---------4p0---4---|
G|-----------------------------------------------------0-----|
C|-0-2-(let-ring)--------------------------------------------|

SECTION 1
Guitar 1
D|---------------0-----------------------------------------------|
A|-----------------0---------------------------------------------|
F|-----------0--------------------------------0-------0--0---0---|
C|-------0h2---2--------------------------0h2---2-/5-------4---0-|
G|---------------------------------------------------------------|
C|-0-2-(let-ring)------------------0-2-(let-ring)----------------|
||
Guitar 2
D|---------------------------------------------------------------|
A|-------------------------------------0-------------------------|
F|-----------------------0-2b3r2-0----------2p0------------------|
C|---------------------------------0h2----2-----2-/5--5--5-4---0-|
G|-------------------0-2-----------------------------------------|
C|---------------------------------------------------------------|

Guitar 1 (Don't play the notes in parentheses on the third repeat)
D|-------------0------0---0-------------------0-------------------|
A|---------------0--3---3---3-----------3---------3---------------|
F|---------0------------------0-----------0---------0----------0)-|
C|-----0h2---2----------------------4h5-----4---------4p0---(4----|
G|--------------------------------------------------------0-------|
C|-0-2-(let-ring)-------------------------------------------------|
||
Guitar 2
D|-------2---------3----------------0-------0-2-0-----------------|
A|----------0--3/5----5----------3-----0--3-------3---------------|
F|----------------------2b3r2-0-----------------------4b5r4----0)-|
C|--/2----------------------------------------------2-------(2----|
G|----------------------------------------------------------------|
C|----------------------------------------------------------------|

REPEAT SECTION 1 2x

SECTION 2
Guitar 1
D|-------------------------------------------------------------------|
A|-------------------------------------------------------------------|
F|-------------------------------------------------------------------|
C|-----2-0---2-0---2-0---2-0-----------2-0---2-0---2-0---2-0---------|
G|-------------------------------------------------------------------|
C|-0-2-----2-----2-----2-----2-3-2-0-2-----2-----2-----2-----2-5-4-0-|
|| . . . . . . . . . . . . . . . . . . . . . . . . . . . . . . . . .
||
Guitar 2
D|-------------------------------------------------------------------|
A|-------------------------------------------------------------------|
F|-----4-----------4---4---------------4-----------4-----------------|
C|-------5---7-5---------7-5---5---------5---7-5-----5---7-5---5---5-|
G|-5-7-----7-----7---7-------7---8-8-7-----7-----7-----7-----7---8---|
C|-------------------------------------------------------------------|
   . . . . . . . . . . . . . . . . . . . . . . . . . . . . . . . . .

Guitar 1
D|-----------------------------------------------------------------|
A|-----------------------------------------------------------------|
F|-------------------------------------0-----0---0-----4-----4---4-|
C|---2-0---2-0---2-0---2-0-----------2-----2---------5-----5-------|
G|---------------------------------0-----0-----0---3-----3-----3---|
C|-2-----2-----2-----2-----2-5-4-0---------------------------------|
|| . . . . . . . . . . . . . . . . . .   . .   .   . .   . .   .
||
Guitar 2
D|---------------------------------------7---7-----------8---10---10-|
A|-----------------------------------8---------8-----8---------------|
F|---4-----------4-----------------9---9---9-----9-9---9---9----9----|
C|-----5---7-5-----5---7-5---5---5-----------------------------------|
G|-7-----7-----7-----7-----7---7-------------------------------------|
C|-------------------------------------------------------------------|
   . . . . . . . . . . . . . . . . . . .   .     . . . .   .    .

Guitar 1
D|-------------------------------------------------------------------|
A|-------------------------------------------------------------------|
F|-------------------------------------------------------------------|
C|-----2-0---2-0---2-0---2-0-----------2-0---2-0---2-0---2-0---------|
G|-------------------------------------------------------------------|
C|-0-2-----2-----2-----2-----2-3-2-0-2-----2-----2-----2-----2-5-4-0-|
|| . . . . . . . . . . . . . . . . . . . . . . . . . . . . . . . . .
||
Guitar 2
D|-------------------------------------------------------------------------------------|
A|-------------------------------------------------------------------------------------|
F|-11------11---12----12--------12---11----11--------11---12----12--------12---12------|
C|----12-9----9----12----9-12-9----9----12----9-12-9----9----12----9-12-9----9----10-9-|
G|-------------------------------------------------------------------------------------|
C|-------------------------------------------------------------------------------------|
       . .    .     .    .  . .    .     .    .  . .    .     .    .  . .    .     .

Guitar 1
D|-----------------------------------------------------------------|
A|-----------------------------------------------------------------|
F|-------------------------------------0-----0---0-----4-----4---4-|
C|---2-0---2-0---2-0---2-0-----------2-----2---------5-----5-------|
G|---------------------------------0-----0-----0---3-----3-----3---|
C|-2-----2-----2-----2-----2-5-4-0---------------------------------|
|| . . . . . . . . . . . . . . . . . .   . .   .   . .   . .   .
||
Guitar 2
D|-------------------------------------------------------------------------------|
A|---------------------------------------------------12---13--13---------13---15-|
F|-11------11---12----12--------12---11----11-9-12-9----9---------9-12-9---------|
C|----12-9----9----12----9-12-9----9----12---------------------------------------|
G|-------------------------------------------------------------------------------|
C|-------------------------------------------------------------------------------|
       . .    .     .    .  . .    .     .    .  . .    .

SECTION 3
Guitar 1 (clean)
D|---------------0-----------------------------------------------|
A|-----------------0---------------------------------------------|
F|-----------0--------------------------------0-------0--0---0---|
C|-------0h2---2--------------------------0h2---2-/5-------4---0-|
G|---------------------------------------------------------------|
C|-0-2-(let-ring)------------------0-2-(let-ring)----------------|
||
Guitar 2 (clean)
D|---------------------------------------------------------------|
A|-------------------------------------0-------------------------|
F|-----------------------0-2b3r2-0----------2p0------------------|
C|---------------------------------0h2----2-----2-/5--5--5-4---0-|
G|-------------------0-2-----------------------------------------|
C|---------------------------------------------------------------|

Guitar 1
D|-------------0------0---0-------------------0-----------------|
A|---------------0--3---3---3-----------3---------3-------------|
F|---------0------------------0-----------0---------0---------0-|
C|-----0h2---2----------------------4h5-----4---------4p0---4---|
G|--------------------------------------------------------0-----|
C|-0-2-(let-ring)-----------------------------------------------|
||
Guitar 2
D|-------2---------3----------------0-------0-2-0---------------|
A|----------0--3/5----5----------3-----0--3-------3-------------|
F|----------------------2b3r2-0-----------------------4b5r4---0-|
C|--/2----------------------------------------------2-------2---|
G|--------------------------------------------------------------|
C|--------------------------------------------------------------|

Guitar 1
D|---------------0-----------------------------------------------|
A|-----------------0---------------------------------------------|
F|-----------0--------------------------------0-------0--0---0---|
C|-------0h2---2--------------------------0h2---2-/5-------4---0-|
G|---------------------------------------------------------------|
C|-0-2-(let-ring)------------------0-2-(let-ring)----------------|
||
Guitar 2
D|---------------------------------------------------------------|
A|-------------------------------------0-------------------------|
F|-----------------------0-2b3r2-0----------2p0------------------|
C|---------------------------------0h2----2-----2-/5--5--5-4---0-|
G|-------------------0-2-----------------------------------------|
C|---------------------------------------------------------------|

Guitar 1
D|-------------0------0---0---------------------------------|
A|---------------0--3---3---3-----------3-------------------|
F|---------0------------------0-----------0---0--0--0---0---|
C|-----0h2---2----------------------4h5-----4---------4---0-|
G|----------------------------------------------------------|
C|-0-2-(let-ring)-------------------------------------------|
||
Guitar 2
D|-------2--------------------------------------------------|
A|----------0--3/5-5555555555555555-------------------------|
F|----------------------------------------------------------|
C|--/2------------------------------------------------------|
G|----------------------------------------------------------|
C|----------------------------------------------------------|

SECTION 4
Both Guitars
D|--------------------------------------------------------------------------------|
A|--------------------------------------------------------------------------------|
F|------------------5--5-5-5-5-5-5------------------------------------------------|
C|-0-2------0-2---0-5--5-5-5-5-5-5-0-2--------5------7--7-7-2-4----9--9-9-9-9-9-9-|
G|-0-2------0-2---0-3--3-3-3-3-3-3-0-2----00005--00007--7-7-2-0----5--5-5-5-5-5-5-|
C|-0-2------0-2---0----------------0-2----00005--00007--7-7-2-0----5--5-5-5-5-5-5-|
                                          ....   ....

Guitar 1
D|--------0-------------0-----------------------------------------------------------------------|
A|------3-------------3-----------------------------0-----0-------------------------------------|
F|----------3b4-------------5--5-5-5-5-5-5------2b4---2b4---2b4r2-0---0-------------------------|
C|-0-2-----------0-2------0-5--5-5-5-5-5-5-0-2----------------------2---4----9--9-9-9-9-9-9-0-2-|
G|-0-2-----------0-2------0-3--3-3-3-3-3-3-0-2--------------------------0----5--5-5-5-5-5-5-0-2-|
C|-0-2-----------0-2------0----------------0-2--------------------------0----5--5-5-5-5-5-5-0-2-|
||
Guitar 2
D|----------------------------------------------------------------------------------------------|
A|----------------------------------------------------------------------------------------------|
F|--------------------------5--5-5-5-5-5-5------------------------------------------------------|
C|-0-2-----------0-2------0-5--5-5-5-5-5-5-0-2----------5------7--7-7-2-4----9--9-9-9-9-9-9-0-2-|
G|-0-2-----------0-2------0-3--3-3-3-3-3-3-0-2------00005--00007--7-7-2-0----5--5-5-5-5-5-5-0-2-|
C|-0-2-----------0-2------0----------------0-2------00005--00007--7-7-2-0----5--5-5-5-5-5-5-0-2-|
                                                    ....   ....

SECTION 5

A large instrumental starts here and eventually an acoustic track 
plays the following progression for a while... 
(acoustic, tuned to standard, strum each chord)
   Dm   F    Gm   Bb   
D|-0----3----0----0----|
A|-0----0----1----1----|
F|-0----0----2----0----|
C|-2----0----2----2----|
G|-2----2----0----3----|
D|-0----3--------------|

When the electric enters again...
Guitar 1
D|-7p0---------------------7p0--------------------------|
A|-----8p0-------8p0-----------8p0-----8--8-8-8-8-8-8-8-|
F|---------9---------9-------------9--------------------|
C|------------------------------------------------------|x4
G|------------------------------------------------------|
C|------------------------------------------------------|

D|--------------------------------------------------------------|
A|-8-(x25)-10-(x8)-12-(x8)-8-(keep-playing-until-it-fades-out)--|
F|--------------------------------------------------------------|
C|--------------------------------------------------------------|
G|--------------------------------------------------------------|
C|--------------------------------------------------------------|

Guitar 2 (comes in right before next section)
D|-------------------------------------------------|
A|-8-8-8-8-8-8-8-8-7-7-7-7-7-7-7-7-7-7-7-7-7-7-7-7-|
F|-x-x-x-x-x-x-x-x-x-x-x-x-x-x-x-x-x-x-x-x-x-x-x-x-|
C|-5-5-5-5-5-5-5-5-4-4-4-4-4-4-4-4-4-4-4-4-4-4-4-4-|
G|-------------------------------------------------|
C|-------------------------------------------------|

SECTION 6
Guitar 1
D|-7p0-------10--7p0-----------7p0------------------------14----10----|
A|-----8p0-----------8p0---10b-----8p0---10----10---------------------|
F|---------9-------------9-------------9----12----12-9-12----12----12-|
C|--------------------------------------------------------------------|
G|--------------------------------------------------------------------|
C|--------------------------------------------------------------------|
||
Guitar 2
D|-----------------------------------------------------------------------------------|
A|-----------------------------------------------------------------------------------|
F|-----------------------------------------------------------------------------------|
C|-5-5-5-5-5-5-5-5-/9-9-9-9-9-9-9-9-10-10-10-10-10-10-10-10-/14-14-14-14-14-14-14-14-|
G|-2-2-2-2-2-2-2-2-/5-5-5-5-5-5-5-5--7--7--7--7--7--7--7--7-/10-10-10-10-10-10-10-10-|
C|-2-2-2-2-2-2-2-2-/5-5-5-5-5-5-5-5--7--7--7--7--7--7--7--7-/10-10-10-10-10-10-10-10-|

Guitar 1
D|-7p0-------10--7p0-------7b8--7p0-----------------------14----10----|
A|-----8p0-----------8p0-----------8p0---10----10---------------------|
F|---------9-------------9-------------9----12----12-9-12----12----12-|
C|--------------------------------------------------------------------|
G|--------------------------------------------------------------------|
C|--------------------------------------------------------------------|
||
Guitar 2
D|-----------------------------------------------------------------------------------|
A|-----------------------------------------------------------------------------------|
F|-----------------------------------------------------------------------------------|
C|-5-5-5-5-5-5-5-5-/9-9-9-9-9-9-9-9-10-10-10-10-10-10-10-10-/14-14-14-14-14-14-14-14-|
G|-2-2-2-2-2-2-2-2-/5-5-5-5-5-5-5-5--7--7--7--7--7--7--7--7-/10-10-10-10-10-10-10-10-|
C|-2-2-2-2-2-2-2-2-/5-5-5-5-5-5-5-5--7--7--7--7--7--7--7--7-/10-10-10-10-10-10-10-10-|

Guitar 1
D|-7p0-------10--7p0------------7p0-----------------------14----10----|
A|-----8p0-----------8p0---10b-----8p0---10----10---------------------|
F|---------9-------------9-------------9----12----12-9-12----12----12-|
C|--------------------------------------------------------------------|
G|--------------------------------------------------------------------|
C|--------------------------------------------------------------------|
||
Guitar 2
D|--------------------------------------------------------------------|
A|-7-7h8p7---7-----------------------7-8-8h10-8-7---7-----------------|
F|---------9---9-7-4/7-7777777777\----------------9---5/9-9999999999\-|
C|---------------------tr---------------------------------------------|
G|--------------------------------------------------------------------|
C|--------------------------------------------------------------------|

Guitar 1
D|-7p0-------10--7p0-------7b8--7p0-----------------------14----10----|
A|-----8p0-----------8p0-----------8p0---10----10---------------------|
F|---------9-------------9-------------9----12----12-9-12----12----12-|
C|--------------------------------------------------------------------|
G|--------------------------------------------------------------------|
C|--------------------------------------------------------------------|
||
Guitar 2
D|--------------------------------------------------------------------|
A|-7-7h8p7---7-----------------------7-8-8h10-8-7---7-----------------|
F|---------9---9-7-4/7-7777777777\----------------9---5/9-9999999999\-|
C|---------------------tr---------------------------------------------|
G|--------------------------------------------------------------------|
C|--------------------------------------------------------------------|

Both Guitars
D|--------------------------------------------------------------------|
A|-7-7h8p7---7-----------------------7-8-8h10-8-7---7-----------------|
F|---------9---9-7-4/7-7777777777\----------------9---5/9-9999999999\-|
C|---------------------tr---------------------------------------------|
G|--------------------------------------------------------------------|
C|--------------------------------------------------------------------|

D|--------------------------------------------------------7------7--7--7--7--7--7\-|
A|-7-7h8p7---7-----------------------7-8-8h10-10-10-10-10-10b12-12-12-12-12-12-12\-|
F|---------9---9-7-4/7-7777777777\-------------------------------------------------|
C|---------------------tr----------------------------------------------------------|
G|---------------------------------------------------------------------------------|
C|---------------------------------------------------------------------------------|

Guitar 1
D|------------------------------------------------------------------------|
A|-5-5-5-5-5-5-5-5-8-8-8-8-8-8-8-8-10-10-10-10-10-10-12\5-5-8-8-8-8-8-8-5-|
F|------------------------------------------------------------------------|
C|------------------------------------------------------------------------|
G|------------------------------------------------------------------------|
C|------------------------------------------------------------------------|
||
Guitar 2
D|-----7-5----------------------------------------------------------------|
A|-5-5-----8-5-0-5-8-8-8-8-8-8-8-8-10-10-10-10-10-10-12\5-5-8-8-8-8-8-8-5-|
F|------------------------------------------------------------------------|
C|------------------------------------------------------------------------|
G|------------------------------------------------------------------------|
C|------------------------------------------------------------------------|

Both Guitars
D|--------------------------------------------7--------------------|
A|-5-8-8-8-8-8-8-8-8-10-10-10-10-10-10-10-10-10b12-----------------|
F|-------------------------------------------(mess around with-----|
C|--------------------------------------------this bend for a bit)-|
G|-----------------------------------------------------------------|
C|-----------------------------------------------------------------|

SECTION 7 (Hevy)
Both Guitars
D|---------------------------------------------------------------------------------------|
A|---------------------------------------------------------------------------------------|
F|---------------------------------5b----------------------------------------------------|
C|-0-2-2-2-2-2-2-2-2-0-2-2-2-2-2-2-5b---0-2-2-2-0-5--5-0-7--7-7-2-4--4-4-4--9--9-9-9-9-9-|x2
G|-0-2-2-2-2-2-2-2-2-0-2-2-2-2-2-2-3b---0-2-2-2-0-5--5-0-7--7-7-2-0--0-0-0--5--5-5-5-5-5-|
C|-0-2-2-2-2-2-2-2-2-0-2-2-2-2-2-2------0-2-2-2-0-5--5-0-7--7-7-2-0--0-0-0--5--5-5-5-5-5-|
NOTE: For the best sound get an octave pedal with a good sub-octave
for the low punch, and add a slight bend to each 222 chord.

D|----------------|
A|----------------|
F|----------------|
C|---9------------|
G|-5-5-(let-ring)-|
C|-5-5------------|
   .

OUTRO
Guitar 1 (clean)
D|---------------0-----------------------------------------------|
A|-----------------0---------------------------------------------|
F|-----------0---------------------------------------------------|
C|-------0h2---2-------------------------------------------------|
G|---------------------------------------------------------------|
C|-0-2-(let-ring)------------------------------------------------|
||
Guitar 2 (clean)
D|---------------------------------------------------------------|
A|-------------------------------------0-------------------------|
F|-----------------------0-2b3r2-0----------2p0-------0--0---0---|
C|---------------------------------0h2----2-----2-/5-------4---0-|
G|-------------------0-2-----------------------------------------|
C|---------------------------------------------------------------|

Guitar 2                       ... start slowing down tempo
D|-------2---------3----------------0-------0-2-0---------------|
A|----------0--3/5----5----------3-----0--3-------3-------------|
F|----------------------2b3r2-0---------------------4-4b5r4---0-|
C|--/2------------------------------------------------------2---|
G|--------------------------------------------------------------|
C|--------------------------------------------------------------|

DOOM JAM

For the cool jam at the end the guitars use an octave pedal (I think
they used a T-Rex Octavius actually) for the low octave and probably
some fuzz. The tuning is also moved up a half step to drop Db.

Eb|--------------------------------------------------|
Bb|--------------------------------------------------|
Gb|------------------------------------(fast-slides)-|
Db|-0----10-12----12-10-0-7-7----7-5-5-0-3/5-3/5-0---|
Ab|-0----10-12----12-10-0-7-7----7-5-5-0-3/5-3/5-0---|
Db|-0----10-12----12-10-0-7-7----7-5-5-0-3/5-3/5-0---|

Basically, just repeat that riff. And that's the whole song.
Pretty awesome tune with a lot of good dynamics.
I hope you like it.
Please rate & comment.
Thanks,
millarso

************************************

| /   slide up
| \   slide down
| h   hammer-on
| p   pull-off
| ~   vibrato
| +   harmonic
| x   Mute note
| b   Bend
| pb  Pre-bend
| br  Bend release
| pbr Pre-bend release
| brb Bend release bend

************************************
Tap to rate this tab
# A B C D E F G H I J K L M N O P Q R S T U V W X Y Z