Song name
# A B C D E F G H I J K L M N O P Q R S T U V W X Y Z

Norma Jean - Shot Gun Message tab

Song: The Shotgun Message
Artist: Norma Jean
Album: Bless The Martyr And Kiss The Child
Tunning: Drop Db (Db-Ab-Db-Gb-Bb-Eb)

heres the tab for the song
i did my best, but i can’t promise you 100% accuracy.

Norma Jean play in a custom tunning(Db-Ab-Db-Gb-Bb-B),
but i tabbed it out in Drop Db tunning

the song is noisy and a little weird in timing
but it shouldn’t be too hard to learn

the palm mutes are obvious, so i didn’t put
them in. don’t complain about it


-”you see right now is a very exiting
moment in our history. right now...is a
critical moment in time”

-”really?”

-”yeah.”

Intro
both guitars
Eb|----------------------------------------------------------------------|
Bb|-17-17-17----17-17-17----17-17-17----17-17-17----17-17-17----17-17-17-|
Gb|-x--x--x-----x--x--x-----x--x--x-----x--x--x-----x--x--x-----x--x--x--|
Db|-15-15-15----15-15-15----15-15-15----15-15-15----15-15-15----15-15-15-|
Ab|----------------------------------------------------------------------|
Db|----------------------------------------------------------------------|

|----------------------------|
|-17-17-17----17-17-17----17-|
|-x--x--x-----x--x--x-----x--|
|-15-15-15----15-15-15----15-|
|----------------------------|
|----------------------------|


|---------------------------------------------|
|------17---------17-------17-----------17----|
|------x----------x--------x------------x-----|
|------15---------15-------15-----------15----|
|-0---------0-----------0---------0-----------|
|-0---------0-----------0---------0-----------|

Guitar I
|-------------------------------------------------------------|
|-------------------------------------------------------------|
|-------------------------------------------------------------|
|-0-----------------------------------------------------------|
|-0----------------0-0000--0-0000--0-0000--0-0000--0-0000--0--|
|-0----------------0-0000--0-0000--0-0000--0-0000--0-0000--0--|
|
|Guitar II
|-------------------------------------------------------------|
|-------------------------------------------------------------|
|-------------------------------------------------------------|
|-0---------------------(0)--------------------------(0)------|
|-0---------------------(0)--------------------------(0)------|
|-0---------------------(0)--------------------------(0)------|

|----17--17-17-17-17-------------17--17------------17--17------------17------------------|
|----x---x--x--x--x--------------x---x-------------x---x-------------x-------------------|
|----15--15-15-15-15-------------15--15------------15--15------------15------------------|
|----------------------------------------------------------------------------------------|
|-0--------------------0-0-0--0----------00000--0----------00000--0------3-3-6-6-5-5-2-2-|
|-0--------------------0-0-0--0----------00000--0----------00000--0------3-3-6-6-5-5-2-2-|
|
|
|--------------------------------17--17------------17--17------------17------------------|
|--------------------------------x---x-------------x---x-------------x-------------------|
|--------------------------------15--15------------15--15------------15------------------|
|----------------------------------------------------------------------------------------|
|-0--------------------0-0-0--0----------00000--0----------00000--0------3-3-6-6-5-5-2-2-|
|-0--------------------0-0-0--0----------00000--0----------00000--0------3-3-6-6-5-5-2-2-|

Both guitars
|-----------17--17---------17--17--17-17--17-17------------17--17-------------------|
|-----------x---x----------x---x---x--x---x--x-------------x---x--------------------|
|-----------15--15---------15--15--15-15--15-15------------15--15-------------------|
|-----------------------------------------------------------------------------------|
|-00000--0----------00000------------------------0-0-0--0----------3-3-6-6-5-5-2-2--|
|-00000--0----------00000------------------------0-0-0--0----------3-3-6-6-5-5-2-2--|


|--------17--17---------17--17---------17-------------|
|--------x---x----------x---x----------x--------------|
|--------15--15---------15--15---------15-------------|
|-----------------------------------------------------|
|-00000----------00000----------0-0-0------3--6--5--2-|
|-00000----------00000----------0-0-0------3--6--5--2-|


|-----------17--17------------17--17------------17------------------|
|-----------x---x-------------x---x-------------x-------------------|
|-----------15--15------------15--15------------15--5-5-8-8-7-7-4-4-|
|---------------------------------------------------3-3-6-6-5-5-2-2-|
|-00000--0----------00000--0----------00000--0------3-3-6-6-5-5-2-2-|
|-00000--0----------00000--0----------00000--0------3-3-6-6-5-5-2-2-|

Guitar I
|-----------------------------------------------------------------------------------|
|-----------------------------------------------------------------------------------|
|-----------------------------------------------------------------------------------|
|-----------------------------------------------------------------------------------|
|-00000-------00000-------00000-------00000-----00000000-----00000000-----00000000--|
|-00000-------00000-------00000-------00000-----00000000-----00000000-----00000000--|
|
|Guitar II
|-----------------------------------------------------------------------------------|
|-----------------------------------------------------------------------------------|
|-----------------------------------------------------------------------------------|
|-----------------------------------------------------------------------------------|
|-00000-------00000-------00000-------00000--------00000--00000000000--------00000--|
|-00000-------00000-------00000-------00000--------00000--00000000000--------00000--|

|-----------------|
|-----------------|
|-----------------|
|-----------------|
|-3-3-6-6-5-5-2-2-|
|-3-3-6-6-5-5-2-2-|
|
|
|-----------------|
|-----------------|
|-----------------|
|-----------------|
|-3-3-6-6-5-5-2-2-|
|-3-3-6-6-5-5-2-2-|

|-----------------------------------------------------------------------------------|
|-----------------------------------------------------------------------------------|
|-----------------------------------------------------------------------------------|
|-----------------------------------------------------------------------------------|
|-00000-------00000-------00000-------00000--------00000--------00000-----00000000--|
|-00000-------00000-------00000-------00000--------00000--------00000-----00000000--|
|
|Strum really fast
|-----------------------------------------------------------------------------------|
|-13------------13-----------13-------13------12---13-------13-----------13---------|
|-x-------------x------------x--------x-------x----x--------x------------x----------|
|-10------------10-----------10-------10------9----10-------10-----------10---------|
|-----------------------------------------------------------------------------------|
|-----------------------------------------------------------------------------------|


strum octave chords really fast
|---------------------------------------------------------------------|
|---------------------------------------------------------------------|
|-------------------------10------9---10--------12---14---15--17------|
|-------------------------x-------x---x---------x----x----x---x-------|
|-00000-------00000-------8-------7---8---------10---12---13--15------|
|-00000-------00000---------------------------------------------------|
|
|strum octave chords really fast
|--------------------------------------------------------------------|
|-13------------12--------13------12--13-----------13----------------|
|-x-------------x---------x-------x---x------------x-----------------|
|-10------------9---------10------9---10-----------10----------------|
|--------------------------------------------------------------------|
|--------------------------------------------------------------------|


outro
|----------------------------------------------------------------------|
|-17-17-17----17-17-17----17-17-17----17-17-17----17-17-17----17-17-17-|
|-x--x--x-----x--x--x-----x--x--x-----x--x--x-----x--x--x-----x--x--x--|
|-15-15-15----15-15-15----15-15-15----15-15-15----15-15-15----15-15-15-|
|----------------------------------------------------------------------|
|----------------------------------------------------------------------|

|-------------------------|
|-17-17-17----17-17-17----|
|-x--x--x-----x--x--x-----|
|-15-15-15----15-15-15----|
|-------------------------|
|-------------------------|


|-----------------------------------------------------------------|
|------17---------17-------17-----------17-----------17--17-17-17-|
|------x----------x--------x------------x------------x---x--x--x--|
|------15---------15-------15-----------15-----------15--15-15-15-|
|-0---------0-----------0---------0-----------0-------------------|
|-0---------0-----------0---------0-----------0-------------------|


Guitar I
|-------------------------------------------------------|
|------17---------17-------17-----------17----------17--|
|------x----------x--------x------------x-----------x---|
|------15---------15-------15-----------15----------15--|
|-0---------0-----------0---------0-----------0---------|
|-0---------0-----------0---------0-----------0---------|
|
|Guitar II
|-------------------------------------------------------|
|------13---------13-------13-----------13----------13--|
|------x----------x--------x------------x-----------x---|
|------10---------10-------10-----------10----------10--|
|-0---------0-----------0---------0-----------0---------|
|-0---------0-----------0---------0-----------0---------|


|--------------------------------------------------------|
|--(17)------------------------(17)----------------------|
|--------------------------------------------------------|
|--(15)------------------------(15)-----------------0----|
|---------------------------------------------------0----|
|---------------------------------------------------0----|
|
|
|--------------------------------------------------------|
|--(13)------------(13)\\--------------------------------|
|--------------------------------------------------------|
|--(10)------------(10)\\---------------------------0----|
|---------------------------------------------------0----|
|---------------------------------------------------0----|
Tap to rate this tab
# A B C D E F G H I J K L M N O P Q R S T U V W X Y Z