Song name
# A B C D E F G H I J K L M N O P Q R S T U V W X Y Z

Norma Jean - Murderotica tab

Norma Jean
Murderotica
O'God The Aftermath
Jordan Rozell
Db Ab Db Gb Bb B

|----33335-------33335-|--3----33335-------33335|------------------------|
|----33335-------33335-|--3----33335-------33335|------------------------|
|----------------------|------------------------|------------------------|
|----------------------|------------------------|------------------------|
|----------------------|------------------------|--0000---0000---0000----|
|--1b------1b-4b-------|2b---1b------1b-4b------|--000024100002410000241-|
                       |________________________|
                                   X4
|---------------------------------------------------------------------|
|---------------------------------------------------------------------|
|---------------------------------------------------------------------|
|----------------------2-4-1-0-0-0-2-4-1-0-0-0-2-4-1-0-0-0-2-4-1-0000-|
|--0000---0000---0000002-4-1-0-0-0-2-4-1-0-0-0-2-4-1-0-0-0-2-4-1-0000-|
|--000024100002410000002-4-1-0-0-0-2-4-1-0-0-0-2-4-1-0-0-0-2-4-1-0000-|

|----------------------| 
|----------------------|
|----------------------|
|--\0000\0000\\000\000\|
|--\0000\0000\\000\000\|
|--\0000\0000\\000\000\|-


|----33335-------33335-|--3----33335-------33335|------------------------|
|----33335-------33335-|--3----33335-------33335|------------------------|
|----------------------|------------------------|------------------------|
|----------------------|------------------------|------------------------|
|----------------------|------------------------|--0000---0000---0000----|
|--1b------1b-4b-------|2b---1b------1b-4b------|--000024100002410000241-|
                       |________________________|
                                   X4
|---------------------------------------------------------------------|
|---------------------------------------------------------------------|
|---------------------------------------------------------------------|
|----------------------2-4-1-0-0-0-2-4-1-0-0-0-2-4-1-0-0-0-2-4-1-0000-|
|--0000---0000---0000002-4-1-0-0-0-2-4-1-0-0-0-2-4-1-0-0-0-2-4-1-0000-|
|--000024100002410000002-4-1-0-0-0-2-4-1-0-0-0-2-4-1-0-0-0-2-4-1-0000-|

|--0-------0------|
|--0-------0------|
|--0-------0------|
|--0-------0------|
|--0-------0------|
|--0-------0------|
                                 

|-3-3--------------------3--------------------------------------3-|
|-3-3--------------------3--------------------------------------3-|
|-----------------------------------------------------------------|
|-----------------------------------------------------------------|
|-----3000--000---000-----000--000---000---3-3-000--000---000-----|
|-----40003200032100032---0003200032100032-4-4-0003200032100032---|

|------------------333-------------------3------------------3-3-|
|------------------333-------------------3------------------3-3-|
|---------------------------------------------------------------|
|---------------------------------------------------------------|
|-000--000---000-------000--000---000---------------------------|
|-0003200032100032-----0003200032100032*b--0003200032100032-----|

Tap to rate this tab
 
# A B C D E F G H I J K L M N O P Q R S T U V W X Y Z