Song name
# A B C D E F G H I J K L M N O P Q R S T U V W X Y Z

Norma Jean - Vertebraille tab

-------------------------------------------------------------------------------
			    VERTEBRAILLE - Norma Jean
-------------------------------------------------------------------------------
Tuning: Drop D down a half step (C# G# C# F# A# D#)

Intro (really unsure on this bit)
|---------------------------------------------------------------------------|
|---------------------------------------------------------------------------|
|---------------------------------------------------------------------------|
|-15p0-14p0--12h14p0---15p0-14p0-12h14p0--12h14-----------------------------|
|---------------------------------------------------------------------------|
|---------------------------------------------------------------------------|

Main Riff (with intro over it)
|---------------------------------------------------------------------------|
|---------------------------------------------------------------------------|
|---------------------------------------------------------------------------|
|-0-2-0h2-3-2-0h2-3-2-------------------------------------------------------|
|-0-2-0h2-3-2-0h2-3-2-------------------------------------------------------|
|-0-2-0h2-3-2-0h2-3-2-------------------------------------------------------|

Verse
|---------------------------------------------------------------------------|
|---------------------------------------------------------------------------|
|---------------------------------------------------------------------------|
|---------------------------------------------------------------------------|
|-5---5----5--5----5--5----5--5--5------------------------------------------|
|--3---2----3--2----3---2---3--2--2-----------------------------------------|

the verses are mixes of these parts, and the one below
|---------------------------------------------------------------------------|
|---------------------------------------------------------------------------|
|---------------------------------------------------------------------------|
|--4------------4-----------------------------------------------------------|
|---------------------------------------------------------------------------|
|----3--0--3------3--0-3--0-3-----------------------------------------------|

Higher version of verse
|---------------------------------------------------------------------------|
|--3---3---3---3------------------------------------------------------------|
|----3--2----3--2----------------------------------------------------------|
|---------------------------------------------------------------------------|
|---------------------------------------------------------------------------|
|---------------------------------------------------------------------------|

 followed by
|---------------------------------------------------------------------------|
|---------------------------------------------------------------------------|
|---------------------------------------------------------------------------|
|---3----2-----3----2-------------------------------------------------------|
|-0-3--0-2---0-3--0-2-------------------------------------------------------|
|-0-3--0-2---0-3--0-2-------------------------------------------------------|
  ^    ^     ^    ^
  pm   pm    pm   pm

|---------------------------------------------------------------------------|
|---------------------------------------------------------------------------|
|-19-18---19-18---18-19---19-18-21-18---------------------------------------|
|---------------------------------------------------------------------------|
|-17-16---17-16---16-17---17-16-19-16---------------------------------------|
|---------------------------------------------------------------------------|


|-------------|------------------------------------------------------------|
|-------------|------------------------------------------------------------|
|-------------|------------------------------------------------------------|
|-0-2-0-5-0-2-|-0-3-0-2--0-3-0-2-0-1-0-1--0-3-0-2--0-3-0-2-0-5-0-2---------|
|-0-2-0-5-0-2-|-0-3-0-2--0-3-0-2-0-1-0-1--0-3-0-2--0-3-0-2-0-5-0-2---------|
|-0-2-0-5-0-2-|-0-3-0-2--0-3-0-2-0-1-0-1--0-3-0-2--0-3-0-2-0-5-0-2---------|

Not sure on the rising discordant parts
the next section is something like
|---------------------------------------------------------------------------|
|---------------------------------------------------------------------------|
|---------------------------------------------------------------------------|
|---------------------------------------------------------------------------|
|---------------------------------------------------------------------------|
|-2p0-2p0-3p2p0-2p0-2p0-0---------------------------------------------------|

Outro
|---------------------------------------------------------------------------|
|---------------------------------------------------------------------------|
|---------------------------------------------------------------------------|
|------------4-4-4-4-0-0-0-0-0-0-0-0-----------2---2---2--------------------|
|---------------------------------------------------------------------------|
|--2-2-2-2-2-------------------------1-1-1-1-1---1---1---XXX-XXXX-----------|


| /  slide up
| \  slide down
| h  hammer-on
| p  pull-off
| ~  vibrato
| +  harmonic
| x  Mute note
===============================================================================
Tap to rate this tab
 
# A B C D E F G H I J K L M N O P Q R S T U V W X Y Z