Guitaretab - guitar tabs
Song name
# A B C D E F G H I J K L M N O P Q R S T U V W X Y Z

Norma Jean - Pretendeavor In Reference To A Sinking Ship tab

#----------------------------------PLEASE NOTE---------------------------------#
#This file is the author's own work and represents their interpretation of the #
#song. You may only use this file for private study, scholarship, or research. #
#------------------------------------------------------------------------------#



Transcribed by guitarwannabe16

	



Gtr I (C# G# C# F# A# B) - 'Lead Guitar'
Gtr II (C# G# C# F# A# B) - 'Rhythm Guitar'

 Oh my God!
  Q=240
 4/4
  Gtr I
  Wx2
|--------|
|--------|
|--------|
|--------|
|--------|
|--------|


 Intro
 4/4
  Gtr I
  E E E E E E E E   E E E E E E E E   E E E E E E E E   E E E E E E E E
|-----------------|-----------------|-----------------|------------------|
|-----------------|-----------------|-----------------|------------------|
|-----------------|-----------------|-----------------|------------------|
|-----2p0---------|-----------------|-----2p0---------|------------------|
|---------2p0-0-2p|=0---------------|---------2p0-0-2-|-0-----2-0--------|
|-2p0-------------|---2p0-1-0-0-1-0-|-1-0-------------|---2p0-----0-2-0--|
|
| Gtr II
| E E E E E E E E   E E E E E E E E   E E E E E E E E   E E E E E E E E
|-----------------|-----------------|-----------------|------------------|
|-----------------|-----------------|-----------------|------------------|
|-----------------|-----------------|-----------------|------------------|
|-----2p0---------|-----------------|-----2p0---------|------------------|
|---------2p0-0-2p|=0---------------|---------2p0-0-2-|-0-----2-0--------|
|-2p0-------------|---2p0-1-0-0-1-0-|-1-0-------------|---2p0-----0-2-0--|


    E E E E E E E E   E E E E E E E E   E E E E E E E E   E E E E E E E E   3x
||------------------|-----------------|-----------------|-------------------||
||o-----------------|-----------------|-----------------|------------------o||
||------------------|-----------------|-----------------|-------------------||
||------2p0---------|-----------------|-----2p0---------|-------------------||
||o---------2p0-0-2p|=0---------------|---------2p0-0-2p|=0-----2p0--------o||
||--2p0-------------|---2p0-1p0-0-1p0-|-1p0-------------|---2p0-----0h2-0---||
|
|   E E E E E E E E   E E E E E E E E   E E E E E E E E   E E E E E E E E   3x
||------------------|-----------------|-----------------|-------------------||
||o-----------------|-----------------|-----------------|------------------o||
||------------------|-----------------|-----------------|-------------------||
||------2p0---------|-----------------|-----2p0---------|-------------------||
||o---------2p0-0-2p|=0---------------|---------2p0-0-2p|=0-----2p0--------o||
||--2p0-------------|---2p0-1p0-0-1p0-|-1p0-------------|---2p0-----0-2p0---||


   Chorus I
    Q=220
      W           W          W          +W      4x
||-------------|-----------|----------|---------||
||o------------|-----------|----------|--------o||
||-------------|-----------|----------|---------||
||-------------|-----------|-0--------|-(0)-----||
||o------------|-----------|-0--------|-(0)----o||
||--/11--------|-\7--------|-0--------|-(0)-----||
|
|     W           W          W          +W      4x
||-------------|-----------|----------|---------||
||o------------|-----------|----------|--------o||
||-------------|-----------|----------|---------||
||-------------|-----------|-0--------|-(0)-----||
||o------------|-----------|-0--------|-(0)----o||
||--/11--------|-\7--------|-0--------|-(0)-----||


   W          W          W          +W
|-----------|----------|----------|--------|
|-----------|----------|----------|--------|
|-----------|----------|----------|--------|
|-/8--------|-5--------|-0--------|-(0)----|
|-/8--------|-5--------|-0--------|-(0)----|
|-/8--------|-5--------|-0--------|-(0)----|
|
|  W          W          W          +W
|-----------|----------|----------|--------|
|-----------|----------|----------|--------|
|-----------|----------|----------|--------|
|-/8--------|-5--------|-0--------|-(0)----|
|-/8--------|-5--------|-0--------|-(0)----|
|-/8--------|-5--------|-0--------|-(0)----|


 Fill
  Q=120
  Q  Q  E E. E.   Q  Q  Q  Q    Q  Q  Q  Q    E E. E. Q  Q
|---------------|-------------|----4-----3--|------------3--|
|---------------|-------------|----4-----3--|------------3--|
|---------------|-------------|-------------|---------------|
|-0--0----0--0--|-0-----0-----|-2-----1-----|---1--1--1-----|
|-0--0----0--0--|-0-----0-----|-2-----1-----|---1--1--1-----|
|-0--0----0--0--|-0-----0-----|-2-----1-----|---1--1--1-----|
|
| Q  Q  E E. E.   Q  Q  Q  Q    Q  Q  Q  Q    E E. E. Q  Q
|---------------|-------------|----4-----3--|------------3--|
|---------------|-------------|----4-----3--|------------3--|
|---------------|-------------|-------------|---------------|
|-0--0----0--0--|-0-----0-----|-2-----1-----|---1--1--1-----|
|-0--0----0--0--|-0-----0-----|-2-----1-----|---1--1--1-----|
|-0--0----0--0--|-0-----0-----|-2-----1-----|---1--1--1-----|


                                              Q=240
  Q  Q  Q  Q    E E. E. Q  Q    Q  Q  Q  Q    W
|----3-----3--|------------3--|----3--------|------|
|----3-----3--|------------3--|----3--------|------|
|-------------|---------------|-------------|------|
|-1-----1-----|---1--1--1-----|-1-----0--0--|------|
|-1-----1-----|---1--1--1-----|-1-----0--0--|------|
|-1-----1-----|---1--1--1-----|-1-----0--0--|------|
|
| Q  Q  Q  Q    E E. E. Q  Q    Q  Q  Q  Q    W
|----3-----3--|------------3--|----3--------|------|
|----3-----3--|------------3--|----3--------|------|
|-------------|---------------|-------------|------|
|-1-----1-----|---1--1--1-----|-1-----0--0--|------|
|-1-----1-----|---1--1--1-----|-1-----0--0--|------|
|-1-----1-----|---1--1--1-----|-1-----0--0--|------|


  E E E E E E E E   E E E E E E E E   E E E E E E E E   E E E E E E E E
|-----------------|-----------------|-----------------|-----------------|
|-----------------|-----------------|-----------------|-----------------|
|-----------------|-----------------|-----------------|-----------------|
|-----------------|-----------------|-----------------|-----------------|
|-0-0-0-0-0-0-0-0-|-0-0-0-0-0-0-0-0-|-x-x-x-x-x-x-x-x-|-x-x-x-x-x-x-x-x-|
|-0-0-0-0-0-0-0-0-|-0-0-0-0-0-0-0-0-|-x-x-x-x-x-x-x-x-|-x-x-x-x-x-x-x-x-|
|
| E E E E E E E E   E E E E E E E E   E E E E E E E E   E E E E E E E E
|-----------------|-----------------|-----------------|-----------------|
|-----------------|-----------------|-----------------|-----------------|
|-----------------|-----------------|-----------------|-----------------|
|-----------------|-----------------|-----------------|-----------------|
|-0-0-0-0-0-0-0-0-|-0-0-0-0-0-0-0-0-|-x-x-x-x-x-x-x-x-|-x-x-x-x-x-x-x-x-|
|-0-0-0-0-0-0-0-0-|-0-0-0-0-0-0-0-0-|-x-x-x-x-x-x-x-x-|-x-x-x-x-x-x-x-x-|


                                    Intro Reprise
  E E E E E E E E   +E  Q  Q  Q.     E E E E E E E E   E E E E E E E E
|-----------------|----------------|-----------------|-----------------|
|-----------------|----------------|-----------------|-----------------|
|-----------------|----------------|-----------------|-----------------|
|---------------2-|-(2)----2-------|-----2p0---------|-----------------|
|-x-x-x-x-x-x-x---|----------------|---------2p0-0-2p|=0---------------|
|-x-x-x-x-x-x-x---|-----3-----3----|-2p0-------------|---2p0-1-0-0-1-0-|
|
| E E E E E E E E   +E  Q  Q  Q.     E E E E E E E E   E E E E E E E E
|-----------------|----------------|-----------------|-----------------|
|-----------------|----------------|-----------------|-----------------|
|-----------------|----------------|-----------------|-----------------|
|---------------2-|-(2)----2-------|-----2p0---------|-----------------|
|-x-x-x-x-x-x-x---|----------------|---------2p0-0-2p|=0---------------|
|-x-x-x-x-x-x-x---|-----3-----3----|-2p0-------------|---2p0-1-0-0-1-0-|


  E E E E E E E E   E E E E E E E E   E E E E E E E E   E E E E E E E E
|-----------------|-----------------|-----------------|-----------------|
|-----------------|-----------------|-----------------|-----------------|
|-----------------|-----------------|-----------------|-----------------|
|-----2p0---------|-----------------|-----2p0---------|-----------------|
|---------2p0-0-2-|-0-----2-0-------|---------2p0-0-2p|=0---------------|
|-1-0-------------|---2p0-----0-2-0-|-2p0-------------|---2p0-1-0-0-1-0-|
|
| E E E E E E E E   E E E E E E E E   E E E E E E E E   E E E E E E E E
|-----------------|-----------------|-----------------|-----------------|
|-----------------|-----------------|-----------------|-----------------|
|-----------------|-----------------|-----------------|-----------------|
|-----2p0---------|-----------------|-----2p0---------|-----------------|
|---------2p0-0-2-|-0-----2-0-------|---------2p0-0-2p|=0---------------|
|-1-0-------------|---2p0-----0-2-0-|-2p0-------------|---2p0-1-0-0-1-0-|


  E E E E E E E E   E E E E E E E E    E Q  Q  Q.     E Q.   H
|-----------------|-----------------|---------------|-------------|
|-----------------|-----------------|---------------|-------------|
|-----------------|-----------------|---------------|-------------|
|-----2p0---------|-----------------|-/6-7--6--8\---|-0------0----|
|---------2p0-0-2-|-0-----2-0-------|-/6-7--6--8\---|-0------0----|
|-1-0-------------|---2p0-----0-2-0-|-/6-7--6--8\---|-0------0----|
|
| E E E E E E E E   E E E E E E E E    E Q  Q  Q.     E Q.   H
|-----------------|-----------------|---------------|-------------|
|-----------------|-----------------|---------------|-------------|
|-----------------|-----------------|---------------|-------------|
|-----2p0---------|-----------------|-/6-7--6--8\---|-0------0----|
|---------2p0-0-2-|-0-----2-0-------|-/6-7--6--8\---|-0------0----|
|-1-0-------------|---2p0-----0-2-0-|-/6-7--6--8\---|-0------0----|


 Breakdown I
  +W           +W           +W           W
|------------|------------|------------|------|
|------------|------------|------------|------|
|------------|------------|------------|------|
|-(0)--------|-(0)--------|-(0)--------|-0----|
|-(0)--------|-(0)--------|-(0)--------|-0----|
|-(0)--------|-(0)--------|-(0)--------|-0----|
|
| +W           +W           +W           W
|------------|------------|------------|------|
|------------|------------|------------|------|
|------------|------------|------------|------|
|-(0)--------|-(0)--------|-(0)--------|-0----|
|-(0)--------|-(0)--------|-(0)--------|-0----|
|-(0)--------|-(0)--------|-(0)--------|-0----|


                                         PM    PM---|
  +W           W          E Q  Q  Q.     Q  Q  E Q  E
|------------|----------|-3-3--3-------|----3---------|
|------------|----------|-3-3--3-------|----3---------|
|------------|----------|--------------|--------------|
|-(0)--------|-0--------|--------------|--------------|
|-(0)--------|-0--------|--------------|-0-----0-0--0-|
|-(0)--------|-0--------|--------------|-0-----0-0--0-|
|
|                                        PM    PM---|
| +W           W          E Q  Q  Q.     Q  Q  E Q  E
|------------|----------|--------------|----3---------|
|------------|----------|--------------|----3---------|
|------------|----------|--------------|--------------|
|-(0)--------|-0--------|-0-0--0-------|--------------|
|-(0)--------|-0--------|-0-0--0-------|-0-----0-0--0-|
|-(0)--------|-0--------|-0-0--0-------|-0-----0-0--0-|


 7/8          4/4
    PM---------|    PM---|        PM---------|    PM---|
  E Q  Q  Q    E Q  Q  E Q    E E Q  Q  Q    E Q  Q  E Q
|-3----------|---3----------|---3----------|---3---------|
|-3----------|---3----------|---3----------|---3---------|
|------------|--------------|--------------|-------------|
|------------|--------------|--------------|-------------|
|---0--0--0--|-0----0--0-0--|-0---0--0--0--|-0----0--0-0-|
|---0--0--0--|-0----0--0-0--|-0---0--0--0--|-0----0--0-0-|
|
|   PM---------|    PM--------|   PM---------|    PM---|
| E Q  Q  Q    E Q  Q  E Q    E E Q  Q  Q    E Q  Q  E Q
|-3----------|---3----------|---3----------|---3---------|
|-3----------|---3----------|---3----------|---3---------|
|------------|--------------|--------------|-------------|
|------------|--------------|--------------|-------------|
|---0--0--0--|-0----0--0-0--|-0---0--0--0--|-0----0--0-0-|
|---0--0--0--|-0----0--0-0--|-0---0--0--0--|-0----0--0-0-|

[ Tab from: http://www.guitaretab.com/n/norma-jean/73030.html ]
                               Breakdown II
  PM  PM---------|    PM----------|
  E E Q  Q  Q    E Q  Q  E Q    E E  Q   Q   Q     E Q  E S S S S S S  S  S
|---3----------|---3----------|------3---3---3--|--3----3-4-5-6-7-8-9-10-11-|
|---3----------|---3----------|------3---3---3--|--3----3-4-5-6-7-8-9-10-11-|
|--------------|--------------|-----------------|---------------------------|
|--------------|--------------|-----------------|---------------------------|
|-0---0--0--0--|-0----0--0-0--|-0-0-------------|----0----------------------|
|-0---0--0--0--|-0----0--0-0--|-0-0-------------|----0----------------------|
|
| PM  PM---------|    PM----------|
| E E Q  Q  Q    E Q  Q  E Q    E E  Q   Q   Q     E Q  E S S S S S S  S  S
|---3----------|---3----------|-----11--11--11--|-11----3-4-5-6-7-8-9-10-11-|
|---3----------|---3----------|-----11--11--11--|-11----3-4-5-6-7-8-9-10-11-|
|--------------|--------------|-----------------|---------------------------|
|--------------|--------------|-----------------|---------------------------|
|-0---0--0--0--|-0----0--0-0--|-0-0-------------|----0----------------------|
|-0---0--0--0--|-0----0--0-0--|-0-0-------------|----0----------------------|


    Q  Q  S S S S S S  S  S   Q  Q  S S S S S S  S  S  3x
||-----3--4-5-6-7-8-9-10-11-|----3--4-5-6-7-8-9-10-11--||
||o----3--4-5-6-7-8-9-10-11-|----3--4-5-6-7-8-9-10-11-o||
||--------------------------|--------------------------||
||--------------------------|--------------------------||
||o-0-----------------------|-0-----------------------o||
||--0-----------------------|-0------------------------||
|
|   Q  Q  S S S S S S  S  S   Q  Q  S S S S S S  S  S  3x
||-----3--4-5-6-7-8-9-10-11-|----3--4-5-6-7-8-9-10-11--||
||o----3--4-5-6-7-8-9-10-11-|----3--4-5-6-7-8-9-10-11-o||
||--------------------------|--------------------------||
||--------------------------|--------------------------||
||o-0-----------------------|-0-----------------------o||
||--0-----------------------|-0------------------------||


  Q  Q  S S S S S S  S  S   H    H
|----3--4-5-6-7-8-9-10-11-|-----------|
|----3--4-5-6-7-8-9-10-11-|-----------|
|-------------------------|-----------|
|-------------------------|-2---------|
|-0-----------------------|-----------|
|-0-----------------------|------3----|
|
| Q  Q  S S S S S S  S  S   W
|----3--4-5-6-7-8-9-10-11-|-----------|
|----3--4-5-6-7-8-9-10-11-|-----------|
|-------------------------|-----------|
|-------------------------|-----------|
|-0-----------------------|-----------|
|-0-----------------------|-----------|


  Q.   Q  +Q.     +W
|---------------|------------|
|---------------|------------|
|---------------|------------|
|-2-------------|------------|
|---------------|------------|
|------3--(3)---|-(3)--------|
|
| W                W
|---------------|------------|
|---------------|------------|
|---------------|------------|
|---------------|------------|
|---------------|------------|
|---------------|------------|


    Q  Q  S S S S S S  S  S   Q  Q  S S S S S S  S  S   3x
||-----3--4-5-6-7-8-9-10-11-|----3--4-5-6-7-8-9-10-11---||
||o----3--4-5-6-7-8-9-10-11-|----3--4-5-6-7-8-9-10-11--o||
||--------------------------|---------------------------||
||--------------------------|---------------------------||
||o-0-----------------------|-0------------------------o||
||--0-----------------------|-0-------------------------||
|
|   Q  Q  S S S S S S  S  S   Q  Q  S S S S S S  S  S   3x
||-----3--4-5-6-7-8-9-10-11-|----3--4-5-6-7-8-9-10-11---||
||o----3--4-5-6-7-8-9-10-11-|----3--4-5-6-7-8-9-10-11--o||
||--------------------------|---------------------------||
||--------------------------|---------------------------||
||o-0-----------------------|-0------------------------o||
||--0-----------------------|-0-------------------------||


  Q  Q  S S S S S S  S  S   W
|----3--4-5-6-7-8-9-10-11-|----------|
|----3--4-5-6-7-8-9-10-11-|----------|
|-------------------------|----------|
|-------------------------|----------|
|-0-----------------------|----------|
|-0-----------------------|----------|
|
| Q  Q  S S S S S S  S  S   W
|----3--4-5-6-7-8-9-10-11-|----------|
|----3--4-5-6-7-8-9-10-11-|----------|
|-------------------------|----------|
|-------------------------|----------|
|-0-----------------------|----------|
|-0-----------------------|----------|


    Q  Q  S S S S S S  S  S   Q  Q  S S S S S S  S  S  4x
||-----3--4-5-6-7-8-9-10-11-|----3--4-5-6-7-8-9-10-11--||
||o----3--4-5-6-7-8-9-10-11-|----3--4-5-6-7-8-9-10-11-o||
||--------------------------|--------------------------||
||--------------------------|--------------------------||
||o-0-----------------------|-0-----------------------o||
||--0-----------------------|-0------------------------||
|
|   Q  Q  S S S S S S  S  S   Q  Q  S S S S S S  S  S  4x
||-----3--4-5-6-7-8-9-10-11-|----3--4-5-6-7-8-9-10-11--||
||o----3--4-5-6-7-8-9-10-11-|----3--4-5-6-7-8-9-10-11-o||
||--------------------------|--------------------------||
||--------------------------|--------------------------||
||o-0-----------------------|-0-----------------------o||
||--0-----------------------|-0------------------------||


  W
|------|
|------|
|------|
|------|
|------|
|------|


   Cool Riff
     E E E E E E E E   E E E E E E E E   E E E E E E E E   +E  Q  Q  Q.    10x
||-------------------|-----------------|-----------------|------------------||
||o------------------|-----------------|-----------------|-----------------o||
||-------------------|-----------------|-----------------|------------------||
||-------------------|-----------------|---------------2-|-(2)----2---------||
||o------------------|-----------------|-----------------|-----------------o||
||--/7p0-3p0-5p0-0-3p|=0-2p0-0-2p0-2-3S|=7p0-3p0-5p0-0---|-----3-----3------||
|
|   Gtr II
|    E E E E E E E E   E E E E E E E E   E E E E E E E E   +E  Q  Q  Q.    10x
||-------------------|-----------------|-----------------|------------------||
||o------------------|-----------------|-----------------|-----------------o||
||-------------------|-----------------|-----------------|------------------||
||-------------------|-----------------|---------------2-|-(2)----2---------||
||o------------------|-----------------|-----------------|-----------------o||
||--/7p0-3p0-5p0-0-3p|=0-2p0-0-2p0-2-3S|=7-0-3p0-5p0-0---|-----3-----3------||


   Chorus II
    Q=220
      W           W          W          +W      4x
||-------------|-----------|----------|---------||
||o------------|-----------|----------|--------o||
||-------------|-----------|----------|---------||
||-------------|-----------|-0--------|-(0)-----||
||o------------|-----------|-0--------|-(0)----o||
||--/11--------|-\7--------|-0--------|-(0)-----||
|
|     W           W          W          +W      4x
||-------------|-----------|----------|---------||
||o------------|-----------|----------|--------o||
||-------------|-----------|----------|---------||
||-------------|-----------|-0--------|-(0)-----||
||o------------|-----------|-0--------|-(0)----o||
||--/11--------|-\7--------|-0--------|-(0)-----||


      W          W          W          +W
||-------------|----------|----------|---------||
||o------------|----------|----------|--------o||
||-------------|----------|----------|---------||
||--/11--------|-7--------|-0--------|-(0)-----||
||o-/11--------|-7--------|-0--------|-(0)----o||
||--/11--------|-7--------|-0--------|-(0)-----||
|
|     W          W          W          +W
||-------------|----------|----------|---------||
||o------------|----------|----------|--------o||
||-------------|----------|----------|---------||
||--/11--------|-7--------|-0--------|-(0)-----||
||o-/11--------|-7--------|-0--------|-(0)----o||
||--/11--------|-7--------|-0--------|-(0)-----||


 Chorus III
    W           W           W          +W
|------------|-----------|-----------|--------|
|------------|-----------|-----------|--------|
|------------|-----------|-----------|--------|
|--/8--------|--5--------|--0--------|-(0)----|
|--/8--------|--5--------|--0--------|-(0)----|
|--/8--------|--5--------|--0--------|-(0)----|
|
|   TP          TP          TP          TP
|   W           W           W           W
|------------|-----------|-----------|--------|
|-/13--------|-----------|-----------|--------|
|------------|-14--------|-11--------|-11-----|
|-/10--------|-----------|-----------|--------|
|------------|-12--------|--9--------|--9-----|
|------------|-----------|-----------|--------|


    W            W             W            +W
|------------|-------------|-------------|---------|
|------------|-------------|-------------|---------|
|------------|-------------|-------------|---------|
|--/8--------|---5---------|---0---------|--(0)----|
|--/8--------|---5---------|---0---------|--(0)----|
|--/8--------|---5---------|---0---------|--(0)----|
|
|   TP           TP            TP            TP
|   W           +W            +W            +W
|------------|-------------|-------------|---------|
|-/13--------|-(13)--------|-(13)--------|-(13)----|
|------------|-------------|-------------|---------|
|-/10--------|-(10)--------|-(10)--------|-(10)----|
|------------|-------------|-------------|---------|
|------------|-------------|-------------|---------|


 Chorus Finale
  Q=150
    W            W           W          +W
|-------------|-----------|-----------|--------|
|-------------|-----------|-----------|--------|
|-------------|-----------|-----------|--------|
|--/8---------|--5--------|--0--------|-(0)----|
|--/8---------|--5--------|--0--------|-(0)----|
|--/8---------|--5--------|--0--------|-(0)----|
|
|   TP           TP          TP          TP
|  +W            W           W           W
|-------------|-----------|-----------|--------|
|-(13)--------|-----------|-----------|--------|
|-------------|-14--------|-11--------|-11-----|
|-(10)--------|-----------|-----------|--------|
|-------------|-12--------|--9--------|--9-----|
|-------------|-----------|-----------|--------|


    W            W             W            +W
|------------|-------------|-------------|---------|
|------------|-------------|-------------|---------|
|------------|-------------|-------------|---------|
|--/8--------|---5---------|---0---------|--(0)----|
|--/8--------|---5---------|---0---------|--(0)----|
|--/8--------|---5---------|---0---------|--(0)----|
|
|   TP           TP            TP            TP
|   W           +W            +W            +W
|------------|-------------|-------------|---------|
|-/13--------|-(13)--------|-(13)--------|-(13)----|
|------------|-------------|-------------|---------|
|-/10--------|-(10)--------|-(10)--------|-(10)----|
|------------|-------------|-------------|---------|
|------------|-------------|-------------|---------|


    W            W          +W           +W
|-------------|-----------|------------|--------|
|-------------|-----------|------------|--------|
|-------------|-----------|------------|--------|
|--/8---------|--5--------|-(5)--------|-(5)----|
|--/8---------|--5--------|-(5)--------|-(5)----|
|--/8---------|--5--------|-(5)--------|-(5)----|
|
|   TP           TP          TP           TP
|  +W            W           W            W
|-------------|-----------|------------|--------|
|-(13)--------|-----------|------------|--------|
|-------------|-14--------|-14---------|-14-----|
|-(10)--------|-----------|------------|--------|
|-------------|-12--------|-12---------|-12-----|
|-------------|-----------|------------|--------|


 Outro
  Q=220
  W          +W           +W           +W
|----------|------------|------------|--------|
|----------|------------|------------|--------|
|----------|------------|------------|--------|
|-0--------|-(0)--------|-(0)--------|-(0)----|
|-0--------|-(0)--------|-(0)--------|-(0)----|
|-0--------|-(0)--------|-(0)--------|-(0)----|
|
| W          +W           +W           +W
|----------|------------|------------|--------|
|----------|------------|------------|--------|
|----------|------------|------------|--------|
|-0--------|-(0)--------|-(0)--------|-(0)----|
|-0--------|-(0)--------|-(0)--------|-(0)----|
|-0--------|-(0)--------|-(0)--------|-(0)----|


  H    H      Q.   Q  +Q.     +H.      Q    W
|-----------|---------------|-------------|------|
|-----------|---------------|-------------|------|
|-----------|---------------|-------------|------|
|-2---------|-2-------------|-------------|------|
|-----------|---------------|-------------|------|
|------3----|------3--(3)---|-(3)---------|------|


 Bass Outro
  Wx36
|---------*|
|---------*|
|---------*|
|---------*|
|---------*|
|---------*|



Duration Legend
---------------
W - whole; H - half; Q - quarter; E - 8th; S - 16th; T - 32nd; X - 64th; a - acciaccatura
+ - note tied to previous; . - note dotted; .. - note double dotted
Uncapitalized letters represent notes that are staccato (1/2 duration)
Irregular groupings are notated above the duration line
Duration letters will always appear directly above the note/fret number it represents the
duration for.  Duration letters with no fret number below them represent rests.  Multi-
bar rests are notated in the form Wxn, where n is the number of bars to rest for.  Low
melody durations appear below the staff

Tablature Legend
----------------
 h   - hammer-on
 p   - pull-off
 b   - bend
 pb  - pre-bend
 r   - bend release (if no number after the r, then release immediately)
 /\  - slide into or out of (from/to "nowhere")
 s   - legato slide
 S   - shift slide
 - natural harmonic
[n]  - artificial harmonic
n(n) - tapped harmonic
 ~   - vibrato
 tr  - trill
 T   - tap
 TP  - trem. picking
 PM  - palm muting
\n/  - tremolo bar dip; n = amount to dip
 \n  - tremolo bar down
 n/  - tremolo bar up
/n\  - tremolo bar inverted dip
 =   - hold bend; also acts as connecting device for hammers/pulls
 <> - volume swell (louder/softer)
 x   - on rhythm slash represents muted slash
 o   - on rhythm slash represents single note slash

Misc Legend
-----------
 |  - bar
||  - double bar
||o - repeat start
o|| - repeat end
*|  - double bar (ending)
 :  - bar (freetime)
 $  - Segno
 &  - Coda
Tempo markers -  = BPM(8/16=s8/s16), where s8 = swing 8ths, s16 = swing 16ths

Related for Pretendeavor In Reference To A Sinking Ship tab
Advertisement will be closed in 10 seconds