Guitaretab - guitar tabs
Song name
# A B C D E F G H I J K L M N O P Q R S T U V W X Y Z

Norma Jean - Shaunluu tab

d#|-------------------------------------------------------------------|
A#|-------------------------------------------------------------------|
F#|-------------------------------------------------------------------|  
C#|-9P0-7P0-----9P0-7P0--9P0------9P0-7P0------9PO-7PO-9PO------------|
G#|7--------0-7----------------7----------0-7-------------------------|
C#|-------------------------------------------------------------------|
[ Tab from: http://www.guitaretab.com/n/norma-jean/73832.html ]
d#|-------------------------------------------------------------------|
A#|---------------------11-11-11---9--9--9--9-------------------------|
F#|---------------------12-12-12--10-10-10-10-------------------------|
C#|----12P0-10P0--------12-12-12--10-10-10-10-------------------------|
G#|10------------0-10---10-10-10---8--8--8--8-------------------------|
C#|-------------------------------------------------------------------|



Related for Shaunluu tab
Advertisement will be closed in 10 seconds