Song name
# A B C D E F G H I J K L M N O P Q R S T U V W X Y Z

Norma Jean - Blueprints For Future Homes tab

Help us improve GuitareTab! Take a short survey!
#----------------------------------PLEASE NOTE---------------------------------#
#This file is the author's own work and represents their interpretation of the #
#song. You may only use this file for private study, scholarship, or research. #
#------------------------------------------------------------------------------#

BLUEPRINTS FOR FUTURE HOMES
As recorded by Norma Jean
(From the 2006 Album REDEEMER)

Transcribed by Jordan Rozell
	

Words by Cory Brandon Music by Norma Jean

Gtr I (Db Ab Db Gb Bb B) - 'Scottie Henry'
Gtr II (Db Ab Db Gb Bb B) - 'Chris Day'

 Intro/Verse
  Q=100
 15/8
  Gtrs I, II
  E S S +S  S E S S +S  S E E S S +S  S E S S +S  S E E
|-------------------------------------------------------|
|-------------------------------------------------------|
|-----3-(3)p0-----3-(3)p0-------3-(3)p0-----3-(3)p0-----|
|-2---3-(3)p0-2---3-(3)p0-2-2---3-(3)p0-2---3-(3)p0-2-2-|
|-2-2-1-(1)p0-2-2-1-(1)p0-2-2-2-1-(1)p0-2-2-1-(1)p0-2-2-|
|-2-2---------2-2---------2-2-2---------2-2---------2-2-|


  Gtr I
  E S S +S  S E S S +S  S E E S S +S  S E S S +S  S E E
|-------------------------------------------------------|
|-------------------------------------------------------|
|-----3-(3)p0-----3-(3)p0-------3-(3)p0-----3-(3)p0-----|
|-2---3-(3)p0-2---3-(3)p0-2-2---3-(3)p0-2---3-(3)p0-2-2-|
|-2-2-1-(1)p0-2-2-1-(1)p0-2-2-2-1-(1)p0-2-2-1-(1)p0-2-2-|
|-2-2---------2-2---------2-2-2---------2-2---------2-2-|
|
| Gtr II
| E S S +S  S E S S +S  S E E S S +S  S E S S +S  S E E
|-------------------------------------------------------|
|-------------------------------------------------------|
|-----3-(3)p0-----3-(3)p0-------3-(3)p0-----3-(3)p0-----|
|-2---3-(3)p0-2---3-(3)p0-2-2---3-(3)p0-2---3-(3)p0-2-2-|
|-2-2-1-(1)p0-2-2-1-(1)p0-2-2-2-1-(1)p0-2-2-1-(1)p0-2-2-|
|-2-2---------2-2---------2-2-2---------2-2---------2-2-|


 4/4
   E   +S   +S   +S   +S  E  +S  +S  +S  +S  +S  +S  +S  +S
|--------------------------------------------------------------|
|--------------------------------------------------------------|
|-12--(12)-(12)-(12)-(12)-9--(9)-(9)-(9)-(9)-(9)-(9)-(9)-(9)---|
|--x---(x)--(x)--(x)--(x)-x--(x)-(x)-(x)-(x)-(x)-(x)-(x)-(x)---|
|-10--(10)-(10)-(10)-(10)-7--(7)-(7)-(7)-(7)-(7)-(7)-(7)-(7)---|
|--------------------------------------------------------------|
|
|  E.        S    E       E.      S   E.          S   E
|--------------------------------------------------------------|
|--------------------------------------------------------------|
|--------------------------------------------------------------|
|--------------------------------------------------------------|
|--5---------5----5-------2-------2---2-----------2---2--------|
|--5---------5----5-------2-------2---2-----------2---2--------|


                                                Pre-Chorus
   E   +S   +S   +S   +S   H             +E      E E E H    +E
|---------------------------------------------||----------------|
|---------------------------------------------||---8------------|
|-11--(11)-(11)-(11)-(11)-12------------(12)\-||-----9----------|
|--x---(x)--(x)--(x)--(x)--x-------------(x)--||-9-----9----(9)-|
|--9---(9)--(9)--(9)--(9)-10------------(10)\-||----------------|
|---------------------------------------------||----------------|
|
|  E.        S    E        E.  S  E.  S   E      W
|---------------------------------------------||----------------|
|---------------------------------------------||----------------|
|---------------------------------------------||----------------|
|---------------------------------------------||-2--------------|
|--0---------0----0-------10--10-10--10--10---||-2--------------|
|--0---------0----0-------10--10-10--10--10---||-2--------------|


   E   E  E  E  +E   E      +E   +E    E E E H    +E     E   E  E  E  +E   E      +E   +E
|------------------------------------|----------------|-------------------------------------|
|-----12-----------------------------|---8------------|-----12------------------------------|
|--------12---------11pb12-(11)r(11)-|-----9----------|--------12---------11b12==(11)r(11)--|
|-12--------12-(12)------------------|-9-----9----(9)-|-12--------12-(12)-------------------|
|------------------------------------|----------------|-------------------------------------|
|------------------------------------|----------------|-------------------------------------|
|
|  Q.        H                   +E    W                 Q.        H                   +E
|------------------------------------|----------------|-------------------------------------|
|------------------------------------|----------------|-------------------------------------|
|------------------------------------|----------------|-------------------------------------|
|--0--------10------------------(10)-|-2--------------|--0--------10------------------(10)--|
|--0--------10------------------(10)-|-2--------------|--0--------10------------------(10)--|
|--0--------10------------------(10)-|-2--------------|--0--------10------------------(10)--|


  S S S S S S S S S S S S S S S S
|---------------------------------|
|---------------------------------|
|-0-0-0-0-0-0-0-0-0-0-0-0-0-0-0-0-|
|-9-9-9-9-9-9-9-9-9-9-9-9-9-9-9-9-|
|---------------------------------|
|---------------------------------|
|
| E   E   S S S E   S E   S S S S
|---------------------------------|
|---------------------------------|
|---------------------------------|
|-2---2---2-2-2-2---2-2---2-5-5-5-|
|-2---2---2-2-2-2---2-2---2-5-5-5-|
|-2---2---2-2-2-2---2-2---2-5-5-5-|


   S  S  S  S  S  S  S   S    S    S    S    S    S    S    S    S
|-------------------------------------------------------------------|
|-12-12-12-12-12-12-12-(12)-(12)-(12)-(12)-(12)-(12)-(12)-(12)-(12)-|
|--0--0--0--0--0--0--0--11---11---11---11---11---11---11---11---11--|
|--9--9--9--9--9--9--9---9----9----9----9----9----9----9----9----9--|
|-------------------------------------------------------------------|
|-------------------------------------------------------------------|
|
|  E     E     S  S  S   E         S    E         S    S    S    S
|-------------------------------------------------------------------|
|-------------------------------------------------------------------|
|-------------------------------------------------------------------|
|--0-----0-----0--0--0--10--------10---10--------10---10---10---10--|
|--0-----0-----0--0--0--10--------10---10--------10---10---10---10--|
|--0-----0-----0--0--0--10--------10---10--------10---10---10---10--|


  S S S S S S S S S S S S S S S S
|---------------------------------|
|---------------------------------|
|-0-0-0-0-0-0-0-0-0-0-0-0-0-0-0-0-|
|-9-9-9-9-9-9-9-9-9-9-9-9-9-9-9-9-|
|---------------------------------|
|---------------------------------|
|
| E   E   S S S E   S E   S S S S
|---------------------------------|
|---------------------------------|
|---------------------------------|
|-2---2---2-2-2-2---2-2---2-5-5-5-|
|-2---2---2-2-2-2---2-2---2-5-5-5-|
|-2---2---2-2-2-2---2-2---2-5-5-5-|


   S  S  S  S  S  S  S   S    S    S    S    S    S  S S S
|----------------------------------------------------------|
|-12-12-12-12-12-12-12-(12)-(12)-(12)-(12)-(12)-(12)-------|
|--0--0--0--0--0--0--0--11---11---11---11---11---11--------|
|--9--9--9--9--9--9--9---9----9----9----9----9----9--------|
|----------------------------------------------------------|
|----------------------------------------------------------|
|
|  E     E     S  S  S   E         S    E         S  S S S
|----------------------------------------------------------|
|----------------------------------------------------------|
|----------------------------------------------------------|
|--0-----0-----0--0--0--10--------10---10--------10--------|
|--0-----0-----0--0--0--10--------10---10--------10--------|
|--0-----0-----0--0--0--10--------10---10--------10--------|


 Chorus
  E E  E E E E  S  S  S  S   E E  S  S  S  S  S  S  S  S  S  S       S      S
|--------------------------|--------------------------------------------------|
|--------------------------|--------------------------------------------------|
|-----12-------12-12-11-11-|-----12-12-12-12-12-12-12-12-11-11b11.5-11-----11-|
|-2-0--x-0-2-0--x--x--x--x-|-2-0--x--x--x--x--x--x--x--x--x--x-------x------x-|
|-2-0-10-0-2-0-10-10--9--9-|-2-0-10-10-10-10-10-10-10-10--9--9-------9b9.5--9-|
|-2-0----0-2-0-------------|-2-0----------------------------------------------|
|
| E E  E E E E  S  S  S  S   E E  E     E     E     E     S  S       S      S
|--------------------------|--------------------------------------------------|
|--------------------------|--------------------------------------------------|
|--------------------------|--------------------------------------------------|
|-2-0-10-0-2-0-10-10-10-10-|-2-0-10-----0-----2-----0----10-10------10-----10-|
|-2-0-10-0-2-0-10-10-10-10-|-2-0-10-----0-----2-----0----10-10------10-----10-|
|-2-0-10-0-2-0-10-10-10-10-|-2-0-10-----0-----2-----0----10-10------10-----10-|


   S  S  S  S  S  S       S       S       S       S  S S  S  S  S  S
|--------------------------------------------------------------------|
|--------------------------------------------------------------------|
|--9--9--9--9--9-16b16.5-16b16.5-16b16.5-16b16.5--9--9----9-11-11-11-|
|--x--x--x--x--x----------------------------------x--x----x--x--x--x-|
|--7--7--7--7--7----------------------------------7--7-0--7--9--9--9-|
|--------------------------------------------------------------------|
|
|  S  S  S  S  S  S       S       S       S       S  S S  S  S  S  S
|--------------------------------------------------------------------|
|--------------------------------------------------------------------|
|--------------------------------------------------------------------|
|-10-10-10-10-10--9b9.5---9b9.5---9b9.5---9b9.5--10-10-0-10-12-12-12-|
|-10-10-10-10-10---------------------------------10-10-0-10-12-12-12-|
|-10-10-10-10-10---------------------------------10-10-0-10-12-12-12-|


   S  S  S  S  S S     S     S     S      S  S S S     S S     S
|----------------------------------------------------------------|
|----------------------------------------------------------------|
|----------------------------------------------------------------|
|-10-10-10-10-10-9b9.5-9b9.5-9b9.5-9b9.5-10-10-0-----------------|
|-10-10-10-10-10-------------------------10-10-0-----------------|
|-10-10-10-10-10-------------------------10-10-0-7b7.5-0-5b5.5-0-|
|
|  S  S  S  S  S S     S     S     S      S  S S S     S S     S
|----------------------------------------------------------------|
|----------------------------------------------------------------|
|----------------------------------------------------------------|
|-10-10-10-10-10-9b9.5-9b9.5-9b9.5-9b9.5-10-10-0-----------------|
|-10-10-10-10-10-------------------------10-10-0-----------------|
|-10-10-10-10-10-------------------------10-10-0-7b7.5-0-5b5.5-0-|


  E E  E E E E  S  S  S  S   E E  S  S  S  S  S  S  S  S  S  S       S      S
|--------------------------|--------------------------------------------------|
|--------------------------|--------------------------------------------------|
|-----12-------12-12-11-11-|-----12-12-12-12-12-12-12-12-11-11b11.5-11-----11-|
|-2-0--x-0-2-0--x--x--x--x-|-2-0--x--x--x--x--x--x--x--x--x--x-------x------x-|
|-2-0-10-0-2-0-10-10--9--9-|-2-0-10-10-10-10-10-10-10-10--9--9-------9b9.5--9-|
|-2-0----0-2-0-------------|-2-0----------------------------------------------|
|
| E E  E E E E  S  S  S  S   E E  E     E     E     E     S  S       S      S
|--------------------------|--------------------------------------------------|
|--------------------------|--------------------------------------------------|
|--------------------------|--------------------------------------------------|
|-2-0-10-0-2-0-10-10-10-10-|-2-0-10-----0-----2-----0----10-10------10-----10-|
|-2-0-10-0-2-0-10-10-10-10-|-2-0-10-----0-----2-----0----10-10------10-----10-|
|-2-0-10-0-2-0-10-10-10-10-|-2-0-10-----0-----2-----0----10-10------10-----10-|


   S  S  S  S  S  S       S       S       S       S  S S  S  S  S  S
|--------------------------------------------------------------------|
|--------------------------------------------------------------------|
|--9--9--9--9--9-16b16.5-16b16.5-16b16.5-16b16.5--9--9----9-11-11-11-|
|--x--x--x--x--x----------------------------------x--x----x--x--x--x-|
|--7--7--7--7--7----------------------------------7--7-0--7--9--9--9-|
|--------------------------------------------------------------------|
|
|  S  S  S  S  S  S       S       S       S       S  S S  S  S  S  S
|--------------------------------------------------------------------|
|--------------------------------------------------------------------|
|--------------------------------------------------------------------|
|-10-10-10-10-10--9b9.5---9b9.5---9b9.5---9b9.5--10-10-0-10-12-12-12-|
|-10-10-10-10-10---------------------------------10-10-0-10-12-12-12-|
|-10-10-10-10-10---------------------------------10-10-0-10-12-12-12-|


   S  S  S  S  S S     S     S     S      S  S S  S  S  S  S
|------------------------------------------------------------|
|------------------------------------------------------------|
|------------------------------------------------16-16-16-16-|
|-10-10-10-10-10-9b9.5-9b9.5-9b9.5-9b9.5-10-10-0-14-14-14-14-|
|-10-10-10-10-10-------------------------10-10-0-------------|
|-10-10-10-10-10-------------------------10-10-0-------------|
|
|  S  S  S  S  S S     S     S     S      S  S S  Q
|------------------------------------------------------------|
|------------------------------------------------------------|
|------------------------------------------------------------|
|-10-10-10-10-10-9b9.5-9b9.5-9b9.5-9b9.5-10-10-0-------------|
|-10-10-10-10-10-------------------------10-10-0-------------|
|-10-10-10-10-10-------------------------10-10-0--0----------|


 3/4
   S   S  S  S  S  S  S  S  S  S  S  S
|--------------------------------------|
|--------------------------------------|
|-16--16-16-16-16-16-16-16-16-16-16-16-|
|-14--14-14-14-14-14-14-14-14-14-14-14-|
|--------------------------------------|
|--------------------------------------|
|
| +H.
|--------------------------------------|
|--------------------------------------|
|--------------------------------------|
|--------------------------------------|
|--------------------------------------|
|-(0)----------------------------------|


 Verse
 15/8
  Gtrs I, II
  E S S +S  S E S S +S  S E E S S +S  S E S S +S  S E E
|-------------------------------------------------------|
|-------------------------------------------------------|
|-----3-(3)p0-----3-(3)p0-------3-(3)p0-----3-(3)p0-----|
|-2---3-(3)p0-2---3-(3)p0-2-2---3-(3)p0-2---3-(3)p0-2-2-|
|-2-2-1-(1)p0-2-2-1-(1)p0-2-2-2-1-(1)p0-2-2-1-(1)p0-2-2-|
|-2-2---------2-2---------2-2-2---------2-2---------2-2-|


  Gtr I
  E S S +S  S E S S +S  S E E S S +S  S E S S +S  S E E
|-------------------------------------------------------|
|-------------------------------------------------------|
|-----3-(3)p0-----3-(3)p0-------3-(3)p0-----3-(3)p0-----|
|-2---3-(3)p0-2---3-(3)p0-2-2---3-(3)p0-2---3-(3)p0-2-2-|
|-2-2-1-(1)p0-2-2-1-(1)p0-2-2-2-1-(1)p0-2-2-1-(1)p0-2-2-|
|-2-2---------2-2---------2-2-2---------2-2---------2-2-|
|
| Gtr II
| E S S +S  S E S S +S  S E E S S +S  S E S S +S  S E E
|-------------------------------------------------------|
|-------------------------------------------------------|
|-----3-(3)p0-----3-(3)p0-------3-(3)p0-----3-(3)p0-----|
|-2---3-(3)p0-2---3-(3)p0-2-2---3-(3)p0-2---3-(3)p0-2-2-|
|-2-2-1-(1)p0-2-2-1-(1)p0-2-2-2-1-(1)p0-2-2-1-(1)p0-2-2-|
|-2-2---------2-2---------2-2-2---------2-2---------2-2-|


 4/4
  S S E   S E   E   E S E E
|----------------------------|
|-0-0-0---0-0---0---0-0-0-0--|
|-9-9-9---9-9---9---9-9-9-9--|
|----------------------------|
|----------------------------|
|----------------------------|
|
| S E   S E   S S S E S E E
|----------------------------|
|----------------------------|
|----------------------------|
|-2-2---2-2---2-2-2-2-2-2-2--|
|-2-2---2-2---2-2-2-2-2-2-2--|
|-2-2---2-2---2-2-2-2-2-2-2--|


   S  S  E    S  E     E  E  S  Q      S S E   S E   E   E S E E
|------------------------------------|---------------------------|
|--0--0--0----0--0----12-12-12-12----|-0-0-0---0-0---0---0-0-0-0-|
|-11-11-11---11-11----12-12-12-12----|-9-9-9---9-9---9---9-9-9-9-|
|------------------------------------|---------------------------|
|------------------------------------|---------------------------|
|------------------------------------|---------------------------|
|
|  S  E    S  E     S  E  E  S  E  E   S E   S E   S S S E S E E
|------------------------------------|---------------------------|
|------------------------------------|---------------------------|
|------------------------------------|---------------------------|
|--0--0----0--0----10-10-10-10-10-10-|-2-2---2-2---2-2-2-2-2-2-2-|
|--0--0----0--0----10-10-10-10-10-10-|-2-2---2-2---2-2-2-2-2-2-2-|
|--0--0----0--0----10-10-10-10-10-10-|-2-2---2-2---2-2-2-2-2-2-2-|


   S  S  S    S  S   a   S  E  E  S  E  S  S  S
|-------------------------------------------------|
|--0--0--0----0--0---0---0--0--0--0--0--0--0--0---|
|-14-14-14---14-14-(14)s16-12-12-12-12-12-12-12---|
|-------------------------------------------------|
|-------------------------------------------------|
|-------------------------------------------------|
|
|  S  E    S  E          S  E  E  S  E  E
|-------------------------------------------------|
|-------------------------------------------------|
|-------------------------------------------------|
|--0--0----0--0---------10-10-10-10-10-10---------|
|--0--0----0--0---------10-10-10-10-10-10---------|
|--0--0----0--0---------10-10-10-10-10-10---------|


 Pre-Chorus
  S S S S S S S S S S S S S S S S
|---------------------------------|
|---------------------------------|
|-0-0-0-0-0-0-0-0-0-0-0-0-0-0-0-0-|
|-9-9-9-9-9-9-9-9-9-9-9-9-9-9-9-9-|
|---------------------------------|
|---------------------------------|
|
| E   E   S S S E   S E   S S S S
|---------------------------------|
|---------------------------------|
|---------------------------------|
|-2---2---2-2-2-2---2-2---2-5-5-5-|
|-2---2---2-2-2-2---2-2---2-5-5-5-|
|-2---2---2-2-2-2---2-2---2-5-5-5-|


   S  S  S  S  S  S  S   S    S    S    S    S    S    S    S    S
|-------------------------------------------------------------------|
|-12-12-12-12-12-12-12-(12)-(12)-(12)-(12)-(12)-(12)-(12)-(12)-(12)-|
|--0--0--0--0--0--0--0--11---11---11---11---11---11---11---11---11--|
|--9--9--9--9--9--9--9---9----9----9----9----9----9----9----9----9--|
|-------------------------------------------------------------------|
|-------------------------------------------------------------------|
|
|  E     E     S  S  S   E         S    E         S    S    S    S
|-------------------------------------------------------------------|
|-------------------------------------------------------------------|
|-------------------------------------------------------------------|
|--0-----0-----0--0--0--10--------10---10--------10---10---10---10--|
|--0-----0-----0--0--0--10--------10---10--------10---10---10---10--|
|--0-----0-----0--0--0--10--------10---10--------10---10---10---10--|


  S S S S S S S S S S S S S S S S
|---------------------------------|
|---------------------------------|
|-0-0-0-0-0-0-0-0-0-0-0-0-0-0-0-0-|
|-9-9-9-9-9-9-9-9-9-9-9-9-9-9-9-9-|
|---------------------------------|
|---------------------------------|
|
| E   E   S S S E   S E   S S S S
|---------------------------------|
|---------------------------------|
|---------------------------------|
|-2---2---2-2-2-2---2-2---2-5-5-5-|
|-2---2---2-2-2-2---2-2---2-5-5-5-|
|-2---2---2-2-2-2---2-2---2-5-5-5-|


   S  S  S  S  S  S  S   S    S    S    S    S    S    S    S    S
|-------------------------------------------------------------------|
|-12-12-12-12-12-12-12-(12)-(12)-(12)-(12)-(12)-(12)-(12)-(12)-(12)-|
|--0--0--0--0--0--0--0--11---11---11---11---11---11---11---11---11--|
|--9--9--9--9--9--9--9---9----9----9----9----9----9----9----9----9--|
|-------------------------------------------------------------------|
|-------------------------------------------------------------------|
|
|  E     E     S  S  S   E         S    E         S    S    S    S
|-------------------------------------------------------------------|
|-------------------------------------------------------------------|
|-------------------------------------------------------------------|
|--0-----0-----0--0--0--10--------10---10--------10---10---10---10--|
|--0-----0-----0--0--0--10--------10---10--------10---10---10---10--|
|--0-----0-----0--0--0--10--------10---10--------10---10---10---10--|


 Interlude
 15/8
  Gtr I
  E S  S        S    S  E S  S        S    S  S S E S  S        S    S  E S  S        S    S  S S S S
|------------------------------------------------------------------------------------------------------|
|------------------------------------------------------------------------------------------------------|
|-----12-------12---12------12-------12---12----------12-------12---12------12-------12---12-----------|
|-2---------------------2---------------------2---2---------------------2---------------------2---2----|
|-2---------------------2---------------------2---2---------------------2---------------------2---2----|
|-2---------------------2---------------------2---2---------------------2---------------------2---2----|
|
| Gtr II
| E S  S       +S   +S  E S  S       +S   +S  S S E S  S       +S   +S  E S  S       +S   +S  S S S S
|------------------------------------------------------------------------------------------------------|
|------------------------------------------------------------------------------------------------------|
|------------------------------------------------------------------------------------------------------|
|-2---------------------2---------------------2---2---------------------2---------------------2---2----|
|-2---12b12.5-(12)r(12)-2---12b12.5-(12)r(12)-2---2---12b12.5-(12)r(12)-2---12b12.5-(12)r(12)-2---2----|
|-2---------------------2---------------------2---2---------------------2---------------------2---2----|


  E S  S        S    S  E S  S        S    S  S S E S  S        S    S  E S  S        S    S  S S S S
|-----------------------------------------------------------------------------------------------------|
|-----------------------------------------------------------------------------------------------------|
|-----12-------12---12------12-------12---12----------12-------12---12------12-------12---12----------|
|-2---------------------2---------------------2---2---------------------2---------------------2---2---|
|-2---------------------2---------------------2---2---------------------2---------------------2---2---|
|-2---------------------2---------------------2---2---------------------2---------------------2---2---|
|
| E S  S       +S   +S  E S  S       +S   +S  S S E S  S       +S   +S  E S  S       +S   +S  S S S S
|-----------------------------------------------------------------------------------------------------|
|-----------------------------------------------------------------------------------------------------|
|-----------------------------------------------------------------------------------------------------|
|-2---------------------2---------------------2---2---------------------2---------------------2---2---|
|-2---12b12.5-(12)r(12)-2---12b12.5-(12)r(12)-2---2---12b12.5-(12)r(12)-2---12b12.5-(12)r(12)-2---2---|
|-2---------------------2---------------------2---2---------------------2---------------------2---2---|


  E S S S S S S S S S S S S S S S S S S S S S S S S S S S S
|-----------------------------------------------------------|
|-8-8-8-8-8-8-8-8-8-8-8-8-8-8-8-8-8-8-8-8-8-8-8-8-8-8-8-8-8-|
|-9-9-9-9-9-9-9-9-9-9-9-9-9-9-9-9-9-9-9-9-9-9-9-9-9-9-9-9-9-|
|-----------------------------------------------------------|
|-----------------------------------------------------------|
|-----------------------------------------------------------|
|
| E S S S S E   S S S S S S E   S S S S E   S S S S S S S S
|-----------------------------------------------------------|
|-----------------------------------------------------------|
|-----------------------------------------------------------|
|-2---------2-----------2---2-----------2-----------2---2---|
|-2---------2-----------2---2-----------2-----------2---2---|
|-2---------2-----------2---2-----------2-----------2---2---|


  E S S S S S S S S S S S S S S S S S S S S S S S S S S S S
|-----------------------------------------------------------|
|-8-8-8-8-8-8-8-8-8-8-8-8-8-8-8-8-8-8-8-8-8-8-8-8-8-8-8-8-8-|
|-9-9-9-9-9-9-9-9-9-9-9-9-9-9-9-9-9-9-9-9-9-9-9-9-9-9-9-9-9-|
|-----------------------------------------------------------|
|-----------------------------------------------------------|
|-----------------------------------------------------------|
|
| E S S S S E   S S S S S S E   S S S S E   S S S S S S S S
|-----------------------------------------------------------|
|-----------------------------------------------------------|
|-----------------------------------------------------------|
|-2---------2-----------2---2-----------2-----------2---2---|
|-2---------2-----------2---2-----------2-----------2---2---|
|-2---------2-----------2---2-----------2-----------2---2---|


  Q=92
 4/4
   E      E  E      E  E      E  E      E
|-----------------------------------------|
|-----------------------------------------|
|-16--------16--------16--------16--------|
|--x---------x---------x---------x--------|
|-14b14.5-0-14b14.5-0-14b14.5-0-14b14.5-0-|
|---------0---------0---------0---------0-|
|
|  W
|-----------------------------------------|
|-----------------------------------------|
|-----------------------------------------|
|-----------------------------------------|
|-----------------------------------------|
|-----------------------------------------|


 Chorus
  Q=100
  E E  E E E E  S  S  S  S   E E  S  S  S  S  S  S  S  S  S  S       S      S
|--------------------------|--------------------------------------------------|
|--------------------------|--------------------------------------------------|
|-----12-------12-12-11-11-|-----12-12-12-12-12-12-12-12-11-11b11.5-11-----11-|
|-2-0--x-0-2-0--x--x--x--x-|-2-0--x--x--x--x--x--x--x--x--x--x-------x------x-|
|-2-0-10-0-2-0-10-10--9--9-|-2-0-10-10-10-10-10-10-10-10--9--9-------9b9.5--9-|
|-2-0----0-2-0-------------|-2-0----------------------------------------------|
|
| E E  E E E E  S  S  S  S   E E  E     E     E     E     S  S       S      S
|--------------------------|--------------------------------------------------|
|--------------------------|--------------------------------------------------|
|--------------------------|--------------------------------------------------|
|-2-0-10-0-2-0-10-10-10-10-|-2-0-10-----0-----2-----0----10-10------10-----10-|
|-2-0-10-0-2-0-10-10-10-10-|-2-0-10-----0-----2-----0----10-10------10-----10-|
|-2-0-10-0-2-0-10-10-10-10-|-2-0-10-----0-----2-----0----10-10------10-----10-|


   S  S  S  S  S  S       S       S       S       S  S S  S  S  S  S
|--------------------------------------------------------------------|
|--------------------------------------------------------------------|
|--9--9--9--9--9-16b16.5-16b16.5-16b16.5-16b16.5--9--9----9-11-11-11-|
|--x--x--x--x--x----------------------------------x--x----x--x--x--x-|
|--7--7--7--7--7----------------------------------7--7-0--7--9--9--9-|
|--------------------------------------------------------------------|
|
|  S  S  S  S  S  S       S       S       S       S  S S  S  S  S  S
|--------------------------------------------------------------------|
|--------------------------------------------------------------------|
|--------------------------------------------------------------------|
|-10-10-10-10-10--9b9.5---9b9.5---9b9.5---9b9.5--10-10-0-10-12-12-12-|
|-10-10-10-10-10---------------------------------10-10-0-10-12-12-12-|
|-10-10-10-10-10---------------------------------10-10-0-10-12-12-12-|


   S  S  S  S  S S     S     S     S      S  S S S     S S     S
|----------------------------------------------------------------|
|----------------------------------------------------------------|
|----------------------------------------------------------------|
|-10-10-10-10-10-9b9.5-9b9.5-9b9.5-9b9.5-10-10-0-----------------|
|-10-10-10-10-10-------------------------10-10-0-----------------|
|-10-10-10-10-10-------------------------10-10-0-7b7.5-0-5b5.5-0-|
|
|  S  S  S  S  S S     S     S     S      S  S S S     S S     S
|----------------------------------------------------------------|
|----------------------------------------------------------------|
|----------------------------------------------------------------|
|-10-10-10-10-10-9b9.5-9b9.5-9b9.5-9b9.5-10-10-0-----------------|
|-10-10-10-10-10-------------------------10-10-0-----------------|
|-10-10-10-10-10-------------------------10-10-0-7b7.5-0-5b5.5-0-|


  E E  E E E E  S  S  S  S   E E  S  S  S  S  S  S  S  S  S  S       S      S
|--------------------------|--------------------------------------------------|
|--------------------------|--------------------------------------------------|
|-----12-------12-12-11-11-|-----12-12-12-12-12-12-12-12-11-11b11.5-11-----11-|
|-2-0--x-0-2-0--x--x--x--x-|-2-0--x--x--x--x--x--x--x--x--x--x-------x------x-|
|-2-0-10-0-2-0-10-10--9--9-|-2-0-10-10-10-10-10-10-10-10--9--9-------9b9.5--9-|
|-2-0----0-2-0-------------|-2-0----------------------------------------------|
|
| E E  E E E E  S  S  S  S   E E  E     E     E     E     S  S       S      S
|--------------------------|--------------------------------------------------|
|--------------------------|--------------------------------------------------|
|--------------------------|--------------------------------------------------|
|-2-0-10-0-2-0-10-10-10-10-|-2-0-10-----0-----2-----0----10-10------10-----10-|
|-2-0-10-0-2-0-10-10-10-10-|-2-0-10-----0-----2-----0----10-10------10-----10-|
|-2-0-10-0-2-0-10-10-10-10-|-2-0-10-----0-----2-----0----10-10------10-----10-|


   S  S  S  S  S  S       S       S       S       S  S S  S  S  S  S
|--------------------------------------------------------------------|
|--------------------------------------------------------------------|
|--9--9--9--9--9-16b16.5-16b16.5-16b16.5-16b16.5--9--9----9-11-11-11-|
|--x--x--x--x--x----------------------------------x--x----x--x--x--x-|
|--7--7--7--7--7----------------------------------7--7-0--7--9--9--9-|
|--------------------------------------------------------------------|
|
|  S  S  S  S  S  S       S       S       S       S  S S  S  S  S  S
|--------------------------------------------------------------------|
|--------------------------------------------------------------------|
|--------------------------------------------------------------------|
|-10-10-10-10-10--9b9.5---9b9.5---9b9.5---9b9.5--10-10-0-10-12-12-12-|
|-10-10-10-10-10---------------------------------10-10-0-10-12-12-12-|
|-10-10-10-10-10---------------------------------10-10-0-10-12-12-12-|


   S  S  S  S  S S     S     S     S      S  S S S S S S
|--------------------------------------------------------|
|--------------------------------------------------------|
|--------------------------------------------------------|
|-10-10-10-10-10-9b9.5-9b9.5-9b9.5-9b9.5-10-10-0-0-0-0-0-|
|-10-10-10-10-10-------------------------10-10-0-0-0-0-0-|
|-10-10-10-10-10-------------------------10-10-0-0-0-0-0-|
|
|  S  S  S  S  S S     S     S     S      S  S S S S S S
|--------------------------------------------------------|
|--------------------------------------------------------|
|--------------------------------------------------------|
|-10-10-10-10-10-9b9.5-9b9.5-9b9.5-9b9.5-10-10-0-0-0-0-0-|
|-10-10-10-10-10-------------------------10-10-0-0-0-0-0-|
|-10-10-10-10-10-------------------------10-10-0-0-0-0-0-|


 Tempo Change
  E S S S     S E S S S S S S S S   E E  E      E E E  E      E
|---------------------------------|-----------------------------|
|-----0-0-----0-----0-0-0-0-0-0-0-|-----------------------------|
|-----3-3b3.5-3-----3-3-3-3-3-3-3-|-----12b12.5-------12b12.5---|
|-2-------------2-----------------|-2-0--x------0-2-0--x------0-|
|-2-------------2-----------------|-2-0-10b10.5-0-2-0-10b10.5-0-|
|-2-------------2-----------------|-2-0---------0-2-0---------0-|
|
| E S S S     S E S S S S S S S S   E E  E      E E E  E      E
|---------------------------------|-----------------------------|
|-----0-0-----0-----0-0-0-0-0-0-0-|-----------------------------|
|-----3-3b3.5-3-----3-3-3-3-3-3-3-|-----------------------------|
|-2-------------2-----------------|-2-0-10------0-2-0-10------0-|
|-2-------------2-----------------|-2-0-10------0-2-0-10------0-|
|-2-------------2-----------------|-2-0-10------0-2-0-10------0-|


  E E  E      E E E  E      E
|-----------------------------|
|-----------------------------|
|-----12b12.5-------12b12.5---|
|-2-0--x------0-2-0--x------0-|
|-2-0-10b10.5-0-2-0-10b10.5-0-|
|-2-0---------0-2-0---------0-|
|
| E E  E      E E E  E      E
|-----------------------------|
|-----------------------------|
|-----------------------------|
|-2-0-10------0-2-0-10------0-|
|-2-0-10------0-2-0-10------0-|
|-2-0-10------0-2-0-10------0-|


  E E  E      E E E  E      E   E E  E      E E E  E      E
|-----------------------------|-----------------------------|
|-----------------------------|-----------------------------|
|-----12b12.5-------12b12.5---|-----12b12.5-------12b12.5---|
|-2-0--x------0-2-0--x------0-|-2-0--x------0-2-0--x------0-|
|-2-0-10b10.5-0-2-0-10b10.5-0-|-2-0-10b10.5-0-2-0-10b10.5-0-|
|-2-0---------0-2-0---------0-|-2-0---------0-2-0---------0-|
|
| E E  E      E E E  E      E   E E  E      E E E  E      E
|-----------------------------|-----------------------------|
|-----------------------------|-----------------------------|
|-----------------------------|-----------------------------|
|-2-0-10------0-2-0-10------0-|-2-0-10------0-2-0-10------0-|
|-2-0-10------0-2-0-10------0-|-2-0-10------0-2-0-10------0-|
|-2-0-10------0-2-0-10------0-|-2-0-10------0-2-0-10------0-|


 Outro
 15/8
  Q      E E E    E E Q      E E E    E E E
|-------------------------------------------|
|-------------------------------------------|
|-------------------------------------------|
|-2s=====1-0--------2-2s=====1-0--------2-2-|
|-2s=====1-0--------2-2s=====1-0--------2-2-|
|-2s=====1-0--------2-2s=====1-0--------2-2-|
|
| E S E.   E S E.   E E S E.   E S E.   E E
|-------------------------------------------|
|-------------------------------------------|
|-----3--------3----------3--------3--------|
|-2---3----2---3----2-2---3----2---3----2-2-|
|-2-2-1----2-2-1----2-2-2-1----2-2-1----2-2-|
|-2-2------2-2------2-2-2------2-2------2-2-|


  Q      E E E    E E Q      E E E    E E E
|--------------------------------------------|
|--------------------------------------------|
|--------------------------------------------|
|-2s=====1-0--------2-2s=====1-0--------2-2--|
|-2s=====1-0--------2-2s=====1-0--------2-2--|
|-2s=====1-0--------2-2s=====1-0--------2-2--|
|
| E S E.   E S E.   E E S E.   E S E.   E E
|--------------------------------------------|
|--------------------------------------------|
|-----3--------3----------3--------3---------|
|-2---3----2---3----2-2---3----2---3----2-2--|
|-2-2-1----2-2-1----2-2-2-1----2-2-1----2-2--|
|-2-2------2-2------2-2-2------2-2------2-2--|


 13/8
  Gtrs I, II
  PM----------------------|
  E E E E E E E E E E E E E
|---------------------------*|
|---------------------------*|
|---------------------------*|
|-2-2-2-2-2-2-2-2-2-2-2-2-2-*|
|-2-2-2-2-2-2-2-2-2-2-2-2-2-*|
|-2-2-2-2-2-2-2-2-2-2-2-2-2-*|



Duration Legend
---------------
W - whole; H - half; Q - quarter; E - 8th; S - 16th; T - 32nd; X - 64th; a - acciaccatura
+ - note tied to previous; . - note dotted; .. - note double dotted
Uncapitalized letters represent notes that are staccato (1/2 duration)
Irregular groupings are notated above the duration line
Duration letters will always appear directly above the note/fret number it represents the
duration for.  Duration letters with no fret number below them represent rests.  Multi-
bar rests are notated in the form Wxn, where n is the number of bars to rest for.  Low
melody durations appear below the staff

Tablature Legend
----------------
 h   - hammer-on
 p   - pull-off
 b   - bend
 pb  - pre-bend
 r   - bend release (if no number after the r, then release immediately)
 /\  - slide into or out of (from/to "nowhere")
 s   - legato slide
 S   - shift slide
 - natural harmonic
[n]  - artificial harmonic
n(n) - tapped harmonic
 ~   - vibrato
 tr  - trill
 T   - tap
 TP  - trem. picking
 PM  - palm muting
\n/  - tremolo bar dip; n = amount to dip
 \n  - tremolo bar down
 n/  - tremolo bar up
/n\  - tremolo bar inverted dip
 =   - hold bend; also acts as connecting device for hammers/pulls
 <> - volume swell (louder/softer)
 x   - on rhythm slash represents muted slash
 o   - on rhythm slash represents single note slash

Misc Legend
-----------
 |  - bar
||  - double bar
||o - repeat start
o|| - repeat end
*|  - double bar (ending)
 :  - bar (freetime)
 $  - Segno
 &  - Coda
Tempo markers -  = BPM(8/16=s8/s16), where s8 = swing 8ths, s16 = swing 16ths

Related for Blueprints For Future Homes tab