Guitaretab - guitar tabs
Song name
# A B C D E F G H I J K L M N O P Q R S T U V W X Y Z

Norma Jean - A Small Spark Vs A Great Forest tab

Band:Norma Jean
Song:A Small Spark vs. A Great Forest
Album:Redeemer
myspace.com/wereshould1begin
(thats a one not an I)

Ok boys and girl this is my second tab for redeemer
This is my favorite song off of it.This album
is a true master piece of southern rock.

Tuning:Db Ab Db Gb Bb B(Typical NJ)

Scottie:Guitar 1
Chris:Guitar 2

Intro:Guitar 2(Repeat until 0:48)an acoustic plays the same thing but you can
barely hear it
B |--------------------------------------------------------------------------|
Bb|--------------------------------------------------------------------------|
Gb|--------------------------------------------------------------------------|
Db|333333333333333333/55-----------------------------------------------------|
Ab|333333333333333333/55-----------------------------------------------------|
Db|333333333333333333/55-----------------------------------------------------|

Intro:Guitar 1(Starts playing faintly at 0:36)Play 8x softly
B |--------------------------------------------------------------------------|
Bb|--------------------------------------------------------------------------|
Gb|-------12-13-14-----------------------------------------------------------|
Db|121212-x--x--x------------------------------------------------------------|
Ab|121212-10-11-12-----------------------------------------------------------|
Db|121212--------------------------------------------------------------------|

Play 6x Till Cory says "WHAT DO YOU SAY!!!"
B |--------------------------------------------------------------------------|
Bb|--------------------------------------------------------------------------|
Gb|-------12-13-14-----------------------------------------------------------|
Db|121212-x--x--x------------------------------------------------------------|
Ab|121212-10-11-12-----------------------------------------------------------|
Db|121212--------------------------------------------------------------------|

Verse:both guitars
B |--------------------------------------------------------------------------|
Bb|--------------------------------------------------------------------------|
Gb|--14-13------14-13-------14-13------14-13---------------------------------|
Db|0-x--x-----0-x--x------0-x--x-----0--x--x---------------------------------|
Ab|0-12-11-5b-0-12-11-5h7-0-12-11-5b-0-12-11-5h7-----------------------------|
Db|0-------5b-0-------5h7-0-------5b-0-------5h7-----------------------------|

Guitar 2 "You've nailed down all your words on me"
B |--------------------------------------------------------------------------|
Bb|--------------------------------------------------------------------------|
Gb|--------------------------------------------------------------------------|
Db|33333-33-33333-33-33333--33-----------------------------------------------|
Ab|33333-33-33333-33-33333--33-----------------------------------------------|
Db|33333-33-33333-33-33333--33-----------------------------------------------|

"It Felt like a blind guide leading me to quicksand"
B |----------------------------------------------------------------------------|
Bb|----------------------------------------------------------------------------|
Gb|--14-13------14-13-------14-13----------------------------------------------|
Db|0-x--x-----0-x--x------0-x--x-----------------------------------------------|
Ab|0-12-11-5b-0-12-11-5h7-0-12-11-5b-------------------------------------------|
Db|0-------5b-0-------5h7-0-------5b-------------------------------------------|

Guitar 1"FIGHT FAIR"(Repeat 4x)
B |--------------------------------------------------------------------------|
Bb|--------------------------------------------------------------------------|
Gb|14x14x14x14/--------------------------------------------------------------|
Db|13x13x13x13/--------------------------------------------------------------|
Ab|12x12x12x12/--------------------------------------------------------------|
Db|--------------------------------------------------------------------------|

Guitar 2
B |--------------------------------------------------------------------------|
Bb|--------------------------------------------------------------------------|
Gb|7x7x7x7x/-----------------------------------------------------------------|
Db|6x6x6x6x/-----------------------------------------------------------------|
Ab|5x5x5x5x/-----------------------------------------------------------------|
Db|--------------------------------------------------------------------------|

Guitar 1
B |--------------------------------------------------------------------------|
Bb|-------14b--------14b--------14b------------------------------------------|
Gb|14x-14-12b-14x-14-12b-14x-14-12b------------------------------------------|
Db|x-x-x------x-x-x------x-x-x-----------------------------------------------|
Ab|12x-12-----12x-12-----12x-12----------------------------------------------|
Db|--------------------------------------------------------------------------|

Guitar 2
B |----------------------------------------------------------------------------|
Bb|----------------------------------------------------------------------------|
Gb|----------------------------------------------------------------------------|
Db|0-0-3-0-0-3b-0--------------------------------------------------------------|
Ab|0-0-3-0-0-3b-0--------------------------------------------------------------|
Db|0-0-3-0-0-3b-0--------------------------------------------------------------|

Itnerlude:Guitar 1
B |--------------------------------------------------------------------------|
Bb|--------------------------------------------------------------------------|
Gb|14~--10-10/9--9/5--5/7--7/10/9--9/12~--12-12------------------------------|
Db|x~~---x--x/x--x/x--x/x--x/-x/x--x/x-~--x--x-------------------------------|
Ab|12~---8--8/7--7/3--3/5--5/-8/7--7/10~--10-10------------------------------|
Db|--------------------------------------------------------------------------|

Guitar 2(I think Chris plays something right here but it sounds like bass)
B |--------------------------------------------------------------------------|
Bb|--------------------------------------------------------------------------|
Gb|--------------------------------------------------------------------------|
Db|0~------------------------------------------------------------------------|
Ab|0~------------------------------------------------------------------------|
Db|0~------------------------------------------------------------------------|

Guitar 1(Gradually strum chords louder and more often)
B |--------------------------------------------------------------------------|
Bb|--------------------------------------------------------------------------|
Gb|14~--10-10/9--9/5--5/7--7/10/9--9/12~--12-12------------------------------|
Db|x~~---x--x/x--x/x--x/x--x/-x/x--x/x-~--x--x-------------------------------|
Ab|12~---8--8/7--7/3--3/5--5/-8/7--7/10~--10-10------------------------------|
Db|--------------------------------------------------------------------------|

Both Guitars(repeat 3x)
B |--------------------------------------------------------------------------|
Bb|--------------------------------------------------------------------------|
Gb|--7-7-------7-7-------7-7-------------------------------------------------|
Db|0-x-x-5h7-3-x-x-7h8-5-x-x-8h10-7-8-8--------------------------------------|
Ab|0-5-5-5h7-3-5-5-7h8-5-5-5-8h10-7-8-8--------------------------------------|
Db|0-----5h7-3-----7h8-5-----8h10-7-8-8--------------------------------------|

Guitar break:Guitar 1(Figure out strumming its really easy)
B |--------------------------------------------------------------------------|
Bb|--------------------------------------------------------------------------|
Gb|--10-10/9--9/5--5/7--7/10/9--9/12--12-12----------------------------------|
Db|---x--x/x--x/x--x/x--x/-x/x--x/x---x--x-----------------------------------|
Ab|---8--8/7--7/3--3/5--5/-8/7--7/10--10-10----------------------------------|
Db|--------------------------------------------------------------------------|
[ Tab from: http://www.guitaretab.com/n/norma-jean/85335.html ]
Guitar 2(Figure out strumming)
B |--------------------------------------------------------------------------|
Bb|--------------------------------------------------------------------------|
Gb|--------------------------------------------------------------------------|
Db|3/5-0-5/7-3-7/8-5-8/10-7--------------------------------------------------|
Ab|3/5-0-5/7-3-7/8-5-8/10-7--------------------------------------------------|
Db|3/5-0-5/7-3-7/8-5-8/10-7--------------------------------------------------|

Both Guitars
B |333333--------------------------------------------------------------------|
Bb|333333--------------------------------------------------------------------|
Gb|--------------------------------------------------------------------------|
Db|--------------------------------------------------------------------------|
Ab|--------------------------------------------------------------------------|
Db|--------------------------------------------------------------------------|

Kick Ass Break down
Guitar 1(for the first 3x then its both)
B |7/--------7/-------7/---------7/---------7/-------------------------------|
Bb|7/--------7/-------7/---------7/---------7/-------------------------------|
Gb|--------------------------------------------------------------------------|
Db|--------------------------------------------------------------------------|
Ab|--------------------------------------------------------------------------|
Db|--1/7p0-3---1/7p0-3---1/7p0-3----1/7p0-3----1/7p0-3-----------------------|

Guitar 2
B |14/------14/-------14/--------14/--------14/------------------------------|
Bb|14/------14/-------14/--------14/--------14/------------------------------|
Gb|--------------------------------------------------------------------------|
Db|--------------------------------------------------------------------------|
Ab|--------------------------------------------------------------------------|
Db|--1/7p0-3---1/7p0-3---1/7p0-3----1/7p0-3----1/7p0-3-----------------------|

Guitar 1
B |--------------------------------------------------------------------------|
Bb|-------14b--------14b--------14b------------------------------------------|
Gb|14x-14-12b-14x-14-12b-14x-14-12b------------------------------------------|
Db|x-x-x------x-x-x------x-x-x-----------------------------------------------|
Ab|12x-12-----12x-12-----12x-12----------------------------------------------|
Db|--------------------------------------------------------------------------|

Guitar 2
B |--------------------------------------------------------------------------|
Bb|--------------------------------------------------------------------------|
Gb|--------------------------------------------------------------------------|
Db|0-0-3-0-0-3b-0------------------------------------------------------------|
Ab|0-0-3-0-0-3b-0------------------------------------------------------------|
Db|0-0-3-0-0-3b-0------------------------------------------------------------|

Both Guitars
B |--------------------------------------------------------------------------|
Bb|--------------5*----------------------------------------------------------|
Gb|--------------5*----------------------------------------------------------|
Db|0-000-0-000-0---0-000-----------------------------------------------------|
Ab|0-000-0-000-0---0-000-----------------------------------------------------|
Db|0-000-0-000-0---0-000-----------------------------------------------------|
               *
Guitar 2(Palm muted)
B |--------------------------------------------------------------------------|
Bb|--------------------------------------------------------------------------|
Gb|--------------------------------------------------------------------------|
Db|3/5-0-5/7-3-7/8-5-8/10-7--------------------------------------------------|
Ab|3/5-0-5/7-3-7/8-5-8/10-7--------------------------------------------------|
Db|3/5-0-5/7-3-7/8-5-8/10-7--------------------------------------------------|

Guitar 1:Dose this weird thing im not sure if this is correct
it sounds good to me
B |--------------------------------------------------------------------------|
Bb|--------------------------------------------------------------------------|
Gb|--------------------------------------------------------------------------|
Db|--------------------------------------------------------------------------|
Ab|--13p12--13p12--13p12--13p12----------------------------------------------|
Db|12-----12-----12-----12---------------------------------------------------|

Guitar 2(Figure out strumming)
B |--------------------------------------------------------------------------|
Bb|--------------------------------------------------------------------------|
Gb|--------------------------------------------------------------------------|
Db|3/5-0-5/7-3-7/8-5-8/10-7--------------------------------------------------|
Ab|3/5-0-5/7-3-7/8-5-8/10-7--------------------------------------------------|
Db|3/5-0-5/7-3-7/8-5-8/10-7--------------------------------------------------|

Guitar 1
B |-------------------------------------------------------------------------------|
Bb|-------------------------------------------------------------------------------|
Gb|-------------------------------------------------------------------------------|
Db|-------------------------------------------------------------------------------|
Ab|--13p12b--13p12b--13p12b--13p12b-----------------------------------------------|
Db|12------12------12------12-----------------------------------------------------|

Guitar 2(Figure out strumming)
B |--------------------------------------------------------------------------|
Bb|--------------------------------------------------------------------------|
Gb|--------------------------------------------------------------------------|
Db|3/5-0-5/7-3-7/8-5-8/10-7--------------------------------------------------|
Ab|3/5-0-5/7-3-7/8-5-8/10-7--------------------------------------------------|
Db|3/5-0-5/7-3-7/8-5-8/10-7--------------------------------------------------|

Guitar break:Guitar 1(Figure out strumming its really easy)
B |--------------------------------------------------------------------------|
Bb|--------------------------------------------------------------------------|
Gb|--10-10/9--9/5--5/7--7/10/9--9/12--12-12----------------------------------|
Db|---x--x/x--x/x--x/x--x/-x/x--x/x---x--x-----------------------------------|
Ab|---8--8/7--7/3--3/5--5/-8/7--7/10--10-10----------------------------------|
Db|--------------------------------------------------------------------------|

Outro:Guitar 1
B |14~-----141414141414------------------------------------------------------|
Bb|14~-----141414141414------------------------------------------------------|
Gb|--------------------------------------------------------------------------|
Db|--------------------------------------------------------------------------|
Ab|--------------------------------------------------------------------------|
Db|--------------------------------------------------------------------------|

Guitar 2(play to him saying fight fair)
B |--------------------------------------------------------------------------|
Bb|--------------------------------------------------------------------------|
Gb|--------------------------------------------------------------------------|
Db|0-0-0-0-0-0-0-------------------------------------------------------------|
Ab|0-0-0-0-0-0-0-------------------------------------------------------------|
Db|0-0-0-0-0-0-0-------------------------------------------------------------|

Guitar 1
B |--------------------------------------------------------------------------|
Bb|--------------------------------------------------------------------------|
Gb|---10-10/9-9/5-5/7--10-10/9-9/5-5/3-3/7-7---------------------------------|
Db|0~--x--x/x-x/x-x/x---x--x/x-x/x-x/x-x/x-x---------------------------------|
Ab|0~--8--8/7-7/3-3/5---8--8/7-7/3-3/1-1/5-5---------------------------------|
Db|0~--------------------------------------0---------------------------------|

Guitar 2
B |--------------------------------------------------------------------------|
Bb|--------------------------------------------------------------------------|
Gb|--------------------------------------------------------------------------|
Db|0~-----------------0------------------------------------------------------|
Ab|0~-----------------0------------------------------------------------------|
Db|0~-----------------0------------------------------------------------------|
                      *
And thats it i know its not 100% correct but its really good
so rate fairly please.
Related for A Small Spark Vs A Great Forest tab
×
Best way to learn
"A Small Spark Vs A Great Forest"