Song name
# A B C D E F G H I J K L M N O P Q R S T U V W X Y Z

Norma Jean - Absentimental tab

                 Absentimental Intro - Norma Jean
            Taken from the album: O' God The Aftermath

Tabbed By:    Daniel
Email:        NOFXer08@aim.com
AIM:          NOFXer08

Tuning: Drop Db (Db Ab Db Gb Bb B)


                                                     *
|--------------------------------------------------|---|
|--------------------------------------------------|---|
|--------------------------------------------------|---|
|---------------------------------------3-5-6--000-|-6-|
|-6p0-6p0-------5p0-----8p0-----8p0-----3-5-6--000-|-6-|
|---------6h7-0-----6p0-----6p0-----6p0-3-5-6--000-|-6-|
                                               (PM)
Play two times and add the * part on third time through.
         ___________________________
             Later in the song:
      (Same riff with a slight variation.)

|--------------------------------------------------|
|--------------------------------------------------|
|--------------------------------------------------|
|---------------------------------------3-5-6--000-|
|-6p0-6p0-------5p0-----8p0-----8p0-----3-5-6--000-|
|---------6h7-0-----6p0-----6p0-----6p0-3-5-6--000-|
                                               (PM)
Play once and then:

|-------------------------------------|
|-------------------------------------|
|-------------------------------------|
|-----------------------8p5-----3-5-6-|
|-6p0-6p0-------5p0---------8p5-3-5-6-|
|---------6h7-0-----6p0---------3-5-6-|

Play once.

____________________________________________________________

That's all I got. Sorry for not knowing the whole thing D:
But nobody else has posted a tab for this and I'm pretty damn sure this is how it's played.

Enjoy.
Tap to rate this tab
 
# A B C D E F G H I J K L M N O P Q R S T U V W X Y Z