Song name
# A B C D E F G H I J K L M N O P Q R S T U V W X Y Z

Normals - What I Cannot Earn tab

Title: What I Cannot Earn
Artist: The Normals
Album: Better Than This
Copyright 1998 Forefront Records
Tabbed by: rajha tahir

Standard tuning

C#m7   046600
Bsus4  024400
Asus   002200

INTRO:
|--0--0--------0--0--|
|--0--0--------0--0--|
|--6--6--(3x)--4--8--| (2x)
|--6--6--------6--9--|
|--4--0--------6--9--|
|--x--5--------x--x--|

VERSE 1:
|--0--0--------0--0--|
|--0--0--------0--0--|
|--6--6--(3x)--4--8--|
|--6--6--------6--9--|
|--4--0--------6--9--|
|--x--5--------x--x--|

|--0--0--------0--0--|
|--0--0--------0--0--|
|--6--6--(3x)--4--8--|
|--6--6--------6--9--|
|--4--0--------6--9--|
|--x--5--------x--x--|

|---------0-----------------0---|
|---------0-----------------0---|
|---------6-----------------8---|
|---------7-----------------6---|
|---------7-----------------7---|
|---------x-----------------x---|

|---------0--------------0----0---|
|---------0--------------0----0---|
|---------6--------------9----8---|
|---------7--------------9----8---|
|---------7--------------7----6---|
|---------x--------------0----0---|

|--0--0--------0--0--|
|--0--0--------0--0--|
|--6--6--(3x)--4--8--|
|--6--6--------6--9--|
|--4--0--------6--9--|
|--x--5--------x--x--|


VERSE 2

CHORUS:
(C#m7  Bsus4  Asus  Bsus4) x4


solo over 1st verse
BRIDGE (over CHORUS progression)
CHORUS
-=-=-=-=-=-=-==-=-=-=-=-=-=-=-=-=-=-=-=-=-=-=-=-=-=-=-=-=-=-=-=-=-=-=-=-=-=-=-
guys, I'm pretty much sure of this tab.hope ya'll like it..
God bLess phiLippiNeS..God BlEss.LEt God bE our rOck aNd sAlvaTion
comments..and suggestion...pls dont think twice to visit my email add jhazzmeandmypal24@yahoo.com
Tap to rate this tab
# A B C D E F G H I J K L M N O P Q R S T U V W X Y Z