Song name
# A B C D E F G H I J K L M N O P Q R S T U V W X Y Z

North Point - Our Great God tab

KEY OF B (us)
intro/verse
e|--2h4--11------7--14------0--7-----------------------------------------------|
B|-----------------------------------------------------------------------------|
G|-----------------------------------------------------------------------------|
D|-----------------------------------------------------------------------------|
A|-----------------------------------------------------------------------------|
E|-----------------------------------------------------------------------------|

chorus
e|-----------------------------------------------------------------------------|
B|-----------------------------------------------------------------------------|
G|--8--11--13-----6--6h8--4----------------------------------------------------|
D|-----------------------------------------------------------------------------|
A|-----------------------------------------------------------------------------|
E|-----------------------------------------------------------------------------|

fill between chorus and verse
e|-----------------------------------------------------------------------------|
B|-----------------------------------------------------------------------------|
G|-----------------------------------------------------------------------------|
D|-----------------------------------------------------------------------------|
A|---2-----9-----6-------2-----9-----6-----------------------------------------|
E|-----------------------------------------------------------------------------|
(may want to add the octave to each note two frets up on G string)

bridge
e|-----------------------------------------------------------------------------|
B|-----------------------------------------------------------------------------|
G|--4-4-4h6---4-4-4h6---4h6-6h8-4h6--11-4-8------------------------------------|
D|-----------------------------------------------------------------------------|
A|-----------------------------------------------------------------------------|
E|-----------------------------------------------------------------------------|

KEY OF C (recording)
intro/verse
e|--3h5--12------8--15------1--8-----------------------------------------------|
B|-----------------------------------------------------------------------------|
G|-----------------------------------------------------------------------------|
D|-----------------------------------------------------------------------------|
A|-----------------------------------------------------------------------------|
E|-----------------------------------------------------------------------------|

chorus
e|-----------------------------------------------------------------------------|
B|-----------------------------------------------------------------------------|
G|--9--12--14-----7--7h9--5----------------------------------------------------|
D|-----------------------------------------------------------------------------|
A|-----------------------------------------------------------------------------|
E|-----------------------------------------------------------------------------|

fill between chorus and verse
e|-----------------------------------------------------------------------------|
B|-----------------------------------------------------------------------------|
G|-----------------------------------------------------------------------------|
D|-----------------------------------------------------------------------------|
A|---3-----10-----7-------3-----10-----7---------------------------------------|
E|-----------------------------------------------------------------------------|
(may want to add the octave to each note two frets up on G string)

bridge
e|-----------------------------------------------------------------------------|
B|-----------------------------------------------------------------------------|
G|--5-5-5h7---5-5-5h7---5h5-5h7-5h7--12-5-9------------------------------------|
D|-----------------------------------------------------------------------------|
A|-----------------------------------------------------------------------------|
E|-----------------------------------------------------------------------------|

************************************

| /   slide up
| \   slide down
| h   hammer-on
| p   pull-off
| ~   vibrato
| +   harmonic
| x   Mute note
| b   Bend
| pb  Pre-bend
| br  Bend release
| pbr Pre-bend release
| brb Bend release bend
Tap to rate this tab
# A B C D E F G H I J K L M N O P Q R S T U V W X Y Z