Song name
# A B C D E F G H I J K L M N O P Q R S T U V W X Y Z

North - Welcome To tab

----------------------------------------------------------------------------
			     Welcome To - North
----------------------------------------------------------------------------
sorry bout my previous tab... i got the wrong title:-P.
Tabbed by:dude
Email:cljw226@yahoo.com.sg

Tuning:EADGBe

e|--------------------------------|
B|---------------------2----2-2---|
G|------3------3------------1-1---|
D|------------------4----4--------|
A|---6----6-6-----6---------------|
E|--------------------------------|
        ^      ^       ^  
       tap    tap     tap
Tap to rate this tab
 
# A B C D E F G H I J K L M N O P Q R S T U V W X Y Z