Song name
# A B C D E F G H I J K L M N O P Q R S T U V W X Y Z

Norther - Down tab

Down composed by Norther
Tabbed by Roopeandroll35
Tuning: D Standard (D,G,C,F,A,D)

This is my first tab of one of my favorite songs, Down. I learned all of this by 
ear, no tabs whatsoever. If you have any suggestions or improvements to this feel 
free to give me as much feedback as possible. Thanks guys.

Intro
(Keyboards, drums, bass) -8 Bars

(0:13)

D  |---------------------------------------------------------------------|
A  |---------------------------------------------------------------------|
F  |----------------------------------------8------8/9\8-------------7\--|
C  |--------------4\\\--------------2-------8------8/9\8------7------7\--|
G  |-------4------4\\\-------2------2---6-6-6--6-6-6/7\6--5-5-5--5-5-5\--|
D  |\--2-2-2--2-2-2\\\---0-0-0--0-0-0------------------------------------|


    |------------------------------------------------------------------|
    |------------------------------------------------------------------|
    |---------------------------------------------------------6\-------|
    |-------------4\--------------7\------4-----4------6------6\-------|
    |------4------4\-------7------7\------5-----5--4-4-4--4-4-4\-------|
    |--2-2-2--2-2-2\---5-5-5--5-5-5\--5-5---5-5------------------------|

(0:24)

    |------------------------|
    |------------------------|
    |------------------------|
    |--6---6---6---------6\\-|
    |--4-4-4-4-4-4-4-4-4-4\\-|
    |------------------------|

Verse

(0:26)

    |-------------------------------------------------------------------------|
    |-------------------------------------------------------------------------|
    |-------------------------------------------------------------------------|
    |-------------------------------------------------------------------------|
    |-----4----------4-----------2----------2----------4----------4----------4|
    |-2-2-2--2-2-2-2-2---0-0-0-0-0--0-0-0-0-0--2-2-2-2-2--2-2-2-2-2--2-2-2-2-2|


                                                   1.                                       2.
    |---------------------|---------------------|
    |---------------------|---------------------|
    |---------------------|---------------------|
    |---------------------|---------------------|
    |---------------------|---------------------|
    |-2-2-5-0-0-0-2-0-0-0-|-2-2-5-0-0-2-0-0-5-0-|

Verse (cont.)

(0:38)

    |--------------------------------------------------------------------------|
    |--------------------------------------------------------------------------|
    |---------------------------------------------------------6-6----------6-6-|
    |--------------------------------------------7-7----------4-4----------4-4-|
    |-----4-4----------4-4----------2-2----------7-7----------4-4----------4-4-|
    |-2-2-2-2--2-2-2-2-2-2--0-0-0-0-0-0--5-5-5-5-5-5--2-2-2-2-2-2--2-2-2-2-2-2-|

                                                               1.                             2.
    |--------------------------|--------------------------|
    |--------------------------|--------------------------|
    |---------6-6----------6-6-|--------------------------|
    |---------4-4----------4-4-|--------------------------|
    |---------4-4----------4-4-|---------4-4----------2-2-|
    |-2-2-2-2-2-2--2-2-2-2-2-2-|-2-2-2-2-2-2--0-0-0-0-0-0-|

Chorus (Intro Riff) 

 
Post Chorus

(1:17)

   
    |---------------------------------------------|
    |---------------------------------------------|
    |---------------------------------------------|
    |---------------------------------------------|
    |-9--9--------------9--9--9--9-----------9--9-|
    |-7--7--7-7-7-7-7-7-7--7--7--7-7-7-7-7-7-7--7-|


Verse Riff Repeat

Chorus Repeat

Drum Fill


    |------------------------------------------------|
    |------------------------------------------------|
    |------------------------------------------------|
    |------------------------------------------------|  x4
    |-2--2--------------2--2--2--2--------------2--2-|
    |-0--0--0-0-0-0-0-0-0--0--0--0--0-0-0-0-0-0-0--0-|


    |------------------------------------------------|
    |------------------------------------------------|
    |------------------------------------------------|
    |------------------------------------------------|  x4
    |------------------------------------------------|
    |-0--0--0-0-0-0-0-0-0--0--0--0--0-0-0-0-0-0-0--0-|


Last Chorus

    |--------------------------------------------------------------------|
    |--------------------------------------------------------------------|
    |-------------11---------------9---------------7--------------7---9--|
    |-----11------11-------9-------9-------7-------7-------7------7---9--|
    |-9-9-9---9-9-9----7-7-7---7-7-7---5-5-5---5-5-5---5-5-5--5-5-5---7--|
    |--------------------------------------------------------------------|

    |--------------------------------------------------------------------|
    |--------------------------------------------------------------------|
    |-------------------------------------------------------------6------|
    |-------------4---------------7-------4-------4-------6-------6------|
    |-----4-------4-------7-------7-------5-------5---4-4-4---4-4-4------|
    |-2-2-2---2-2-2---5-5-5---5-5-5---5-5-----5-5-5----------------------|

    |--------------------------------------------------------------------|
    |--------------------------------------------------------------------|
    |--------------------------------------------4---------------2-------|
    |------------4---------------2-------4-------4-------2-------2-------|
    |-----4------4-------2-------2---2-2-2---2-2-2---0-0-0---0-0-0-------|
    |-2-2-2--2-2-2---0-0-0---0-0-0---------------------------------------|

    |--------------------------------------------------------------------|
    |--------------------------------------------------------------------|
    |-------------------------------------------------------------6------|
    |-------------4---------------7-------4-------4-------6-------6------|
    |-----4-------4-------7-------7-------5-------5---4-4-4---4-4-4------|
    |-2-2-2---2-2-2---5-5-5---5-5-5---5-5-----5-5-5----------------------|


Outro:

(3:18)

    |------------------------------------------------|
    |------------------------------------------------|
    |------------------------------------------------|
    |------------------------------------------------|  x4
    |-4--4--------------4--4--4--4--------------4--4-|
    |-2--2--2-2-2-2-2-2-2--2--2--2--2-2-2-2-2-2-2--2-|



    |------------------------------------------------|
    |------------------------------------------------|
    |------------------------------------------------|
    |------------------------------------------------|  x3
    |-2--2--------------2--2--2--2--------------2--2-| 
    |-0--0--0-0-0-0-0-0-0--0--0--0--0-0-0-0-0-0-0--0-|



    |-------------------------|
    |-------------------------|
    |-------------------------|
    |-------------------------|
    |-2--2--------------2/--x-|
    |-0--0--0-0-0-0-0-0-0/--x-|



Comment and Rate!
Tap to rate this tab
 
# A B C D E F G H I J K L M N O P Q R S T U V W X Y Z