Guitaretab - guitar tabs
Song name
# A B C D E F G H I J K L M N O P Q R S T U V W X Y Z

Norther - Death Unlimited tab

Note: This is the way to play the solo without a whammy bar.

Petri's solo:

|-19------------19-18b19r18-|
|--------19-17--------------|
|----21---------------------|
|---------------------------|
|---------------------------|
|---------------------------|

|151412-------------------------------------------------|
|------151312-------------------------------------------|
|------------1412-------------------------------1214----|
|----------------151412-------------------121415--------|
|----------------------1514b15r14---121415--------------|
|-------------------------------------------------------|

|-----------------------------------------------------18b19--19-19-19r-|
|-15v1515--17v1717--19v--21v--23v--15--15-15-15-15-15------------------|
|----------------------------------------------------------------------|
|----------------------------------------------------------------------|
|----------------------------------------------------------------------|
|----------------------------------------------------------------------|

|-191715--------------------------------------------------|
|-------191715--------------------------------------------|
|-------------171614--------------------------------------|
|-------------------171614--------------------------------|
|-------------------------171514--------------------------|
|-------------------------------17151412------------------|

Kristian's solo:
[ Tab from: http://www.guitaretab.com/n/norther/68917.html ]
|-151312151312141311141311131110131110121191211911981198109710970h5/16p0|
|-----------------------------------------------------------------------|
|-----------------------------------------------------------------------|
|-----------------------------------------------------------------------|
|-----------------------------------------------------------------------|
|-----------------------------------------------------------------------|

Duet:

|--------------14----12--11--9---15--13--12--18--18--18--18b19------|
|-/8---10--12-------------------------------------------------------|
|-------------------------------------------------------------------|
|-------------------------------------------------------------------|
|-------------------------------------------------------------------|
|-------------------------------------------------------------------|

Petriís 2nd Solo:
  T   T   T       T   T   T      T   T   T      T  T  T
|-191519151917151216121612161412914101410141210712812812108510610610863--7-5b6r-5-5-6b7-|
|---------------------------------------------------------------------------------------|
|---------------------------------------------------------------------------------------|
|---------------------------------------------------------------------------------------|
|---------------------------------------------------------------------------------------|
|---------------------------------------------------------------------------------------|

Kristianís 2nd Solo:

|-1513111513111311911979119757975-5/7--7--5--3--7---1517191715171917151719--|
|---------------------------------------------------------------------------|
|---------------------------------------------------------------------------|
|---------------------------------------------------------------------------|
|---------------------------------------------------------------------------|
|---------------------------------------------------------------------------|

listen to the song for the right timing.

v=vibrato
b=bend
r=release
T=tap
Related for Death Unlimited tab