Song name
# A B C D E F G H I J K L M N O P Q R S T U V W X Y Z

Norther - Unleash Hell tab

.  - palm mute           /  - slide up to
\  - slide down to       ~  - vibrato
h  - hammer on           b  - Bend
p  - pull off            Suffixes for bend
t  - tap                 f  - full bend    h - half bend
ph - pinched harmonic    q  - quarter bend t - tap bend
*  - see comment         ^  - Hold bend    r release bend
x  - Stuccatto           ~  - vibrato bend
,  - slight palm mute    () - ghost note, sustained note
"  - tremolo note        <> - Trill

Tunning E A D G B E

from the album mirror of madness

Krides guitar

(A) 4x main riff
------------------------------------------------------------------|
------------------------------------------------------------------|
------------------------------------------------------------------|
------2-------2-------2-------2-------6-------6-------5-------5---|
------2-------2-------2-------2-------6-------6-------5-------5---|
--0-0---0-0-0---0-0-0---0-0-0---4-4-4---4-4-4---3-3-3---3-3-3-----|


(B) 2 x
E, C, E, D, E, C, D


(A) 2 x


(C)
------------------------------------------------------------------|
------------------------------------------------------------------|
-----5---5-----5---5----------------------------------------------|
-----5---5-----5---5-----2-------2-------2-----2---2--------------|
-----3---3-----3---3-----2-------2-------2-----2---2--------------|
-0-0-------0-0-------0-0---0-0-0---0-0-0---0-0---0----------------|

------------------------------------------------------------------|
------------------------------------------------------------------|
-----5---5-----5---5----------------------------------------------|
-----5---5-----5---5----------------------------------------------|
-----3---3-----3---3-----3---2-----0-----3---2---0----------------|
-0-0-------0-0-------0-0---0---0-0---0-0---0---0------------------|

------------------------------------------------------------------|
------------------------------------------------------------------|
-----5---5-----5---5----------------------------------------------|
-----5---5-----5---5-----2-------2-------2-----2---2--------------|
-----3---3-----3---3-----2-------2-------2-----2---2--------------|
-0-0-------0-0-------0-0---0-0-0---0-0-0---0-0---0----------------|

------------------------------------------------------------------|
------------------------------------------------------------------|
-----5---5-----5---5----------------------------------------------|
-----5---5-----5---5----------------------------------------------|
-----3---3-----3---3-----2---0-----------2---0--------------------|
-0-0-------0-0-------0-0---0---0-0-3-0-0---0---0-3----------------|


(A) 4x


(B) 2 x
E, C, E, D, E, C, D


(D) 4 x
------------------------------------------------------------------|
------------------------------------------------------------------|
----------5---------4-------------5---5-----4---------------------|
----------7---------6-------------7---7-----6---------------------|
----------8---------7-------------8---8-----7---------------------|
--0-0---0-------0-0-------0-0---0-------0-0-----------------------|

(E)a 4 x (this riff is played at the same time as Pete plays solo)
--------------------------------|
--------------------------------|
--------------------------------|
-----2------2-------2-------2---|
-----2------2-------2-------2---|
-0-0--0-0-0---0-0-0---0-0-0-----|

(E)b 1 x (solo still goes on... this is the same as the first half of riff C)
------------------------------------------------------------------|
------------------------------------------------------------------|
-----5---5-----5---5----------------------------------------------|
-----5---5-----5---5-----2-------2-------2-----2---2--------------|
-----3---3-----3---3-----2-------2-------2-----2---2--------------|
-0-0-------0-0-------0-0---0-0-0---0-0-0---0-0---0----------------|

------------------------------------------------------------------|
------------------------------------------------------------------|
-----5---5-----5---5----------------------------------------------|
-----5---5-----5---5----------------------------------------------|
-----3---3-----3---3-----3---2-----0-----3---2---0----------------|
-0-0-------0-0-------0-0---0---0-0---0-0---0---0------------------|


(A) 2x


(B) 2 x
E, C, E, D, E, C, D

Here comes Krides solo, the background goes like this:
(E)a and then

(E)c (this is the same as the second half of the C riff)
------------------------------------------------------------------|
------------------------------------------------------------------|
-----5---5-----5---5----------------------------------------------|
-----5---5-----5---5-----2-------2-------2-----2---2--------------|
-----3---3-----3---3-----2-------2-------2-----2---2--------------|
-0-0-------0-0-------0-0---0-0-0---0-0-0---0-0---0----------------|

------------------------------------------------------------------|
------------------------------------------------------------------|
-----5---5-----5---5----------------------------------------------|
-----5---5-----5---5----------------------------------------------|
-----3---3-----3---3-----2---0-----------2---0--------------------|
-0-0-------0-0-------0-0---0---0-0-3-0-0---0---0-3----------------|

(A) 4x

 then in the end just E, E, E, E   E, E, E, E
Tap to rate this tab
# A B C D E F G H I J K L M N O P Q R S T U V W X Y Z