Song name
# A B C D E F G H I J K L M N O P Q R S T U V W X Y Z

Norther - Mirror Of Madness tab

Intro

|-----------------|----------------|-----------------|----------------|
|---------h-------|-p-------p------|---------h-------|-p--------------|
|9-------910------|97------75------|9-------910------|97------55555555|
|7---77777----7777|77--777777--5555|7---77777----7777|77--7777--------|
|-----------------|----------------|-----------------|----------------|
|-----------------|----------------|-----------------|----------------|

|-----------------|----------------|-----------------|----------------|
|---------h-------|-p-------p------|---------h-------|-p--------------|
|9-------910------|97------75------|9-------910------|97------997755--|
|7---77777----7777|77--777777--5555|7---77777----7777|77--7777------55|
|-----------------|----------------|-----------------|----------------|
|-----------------|----------------|-----------------|----------------|

|-----------------|----------------|-----------------|------------PH--|
|---------h-------|-p-------p------|---------h-------|-p----------x~~-|
|9-------910------|97------75------|9-------910------|97------5555----|
|7---77777----7777|77--777777--5555|7---77777----7777|77--7777--------|
|-----------------|----------------|-----------------|----------------|
|-----------------|----------------|-----------------|----------------|

|-----------------|----------------|-----------------|-------------------|
|---------h-------|-p-------p------|-----------------|-------------------|
|9-------910------|97------75------|9-9--------------|-------------------|
|7---77777----7777|77--777777--5555|7-7-777710-10----|12-12---------9----|
|-----------------|----------------|---------8--88888|10-10-101010107.---|
|-----------------|----------------|-----------------|-------------------|

A

|----------------|----------------|-----------------|----------------|
|----------------|----------------|-----------------|----------------|
|----------------|----------------|-----------------|----------------|
|--------7-------|5---------------|5-------10-------|9---------------|
|7-000000--000000|--0000000000----|--000000---000000|--00000033333333|
|----------------|------------3333|-----------------|----------------|

|-----------------|----------------|----------------|----------------|
|-----------------|----------------|----------------|----------------|
|-----------------|9---------------|----------------|----------------|
|7-------10-------|----------------|6---------------|6-66666666666666|
|--000000---000000|--0000000000----|4-44444444444444|----------------|
|-----------------|------------3333|----------------|----------------|

|----------------|----------------|-----------------|----------------|
|----------------|----------------|-----------------|----------------|
|----------------|----------------|-----------------|----------------|
|--------7-------|5---------------|--------10-------|9---------------|
|7-000000--000000|--0000000000----|7-000000---000000|--00000033333333|
|----------------|------------3333|-----------------|----------------|

|----------------|----------------|-----------------|----------------|
|----------------|----------------|-----------------|----------------|
|--------7-------|9---------------|-----------------|----------------|
|7---------------|----------------|6----------------|6-66666666666666|
|--000000--000000|--0000000000----|4-444444444444444|----------------|
|----------------|------------3333|-----------------|----------------|

B

|--------------------|-----------------------|---------------|--------------|
|--------------------|-----------------------|---------------|--------------|
|--------------------|-----------------------|---------------|--------------|
|14---------14-------|12---------12--12 12 12|10-----10------|9-----10 9 9 9|
|12-1212121212-------|10-1010101010-.10.10.10|-8-8888-8------|7-7777-7.7.7.7|
|--------------------|-----------------------|---------------|--------------|

|--------------------|-----------------------|---------------|--------------|
|--------------------|-----------------------|---------------|--------------|
|--------------------|-----------------------|---------------|10-----9------|
|14---------14-------|15---------14----------|10-----10------|-9-----9------|
|12-1212121212-------|12-1212121212----------|-8-8888-8------|-7-77777------|
|--------------------|-----------------------|---------------|--------------|

Chorus

|----------------|----------------|----------------|----------------|
|----------------|----------------|----------------|----------------|
|----------------|----------------|----------------|----------------|
|----------------|------------5---|7---------------|5---------------|
|7-----------5---|7-----------3---|5-55555555555555|3-3333335-------|
|5-55555555553---|5-5555555555----|----------------|--------3-333333|

|----------------|----------------|----------------|----------------|
|----------------|----------------|----------------|----------------|
|----------------|----------------|----------------|----------------|
|----------------|------------5---|7---------------|5-------5-------|
|7-----------5---|7-----------3---|5-55555555555555|3-3333332-222222|
|5-55555555553---|5-5555555555----|----------------|----------------|x2

|--------------12|----------------|----------------|----------------|
|13--12----------|---13--12-------|--------------15|---13~-12-------|
|---------14~----|----------14~---|14--12----------|----------14~-12|
|----------------|----------------|---------15~----|----------------|
|----------------|----------------|----------------|----------------|
|----------------|----------------|----------------|----------------|

Intro

|------------|
|------------|
|754---------|
|---754------|
|------75.---|
|------------|

A 2

|----------------|----------------|-----------------|----------------|
|----------------|----------------|-----------------|----------------|
|----------------|----------------|-----------------|----------------|
|--------7-------|5---------------|--------10-------|9-------22222222|
|7-000000--000000|--0000000000----|7-000000---000000|--000000--------|
|----------------|------------3333|-----------------|----------------|

|-----------------|----------------|----------------|----------------|
|-----------------|----------------|----------------|----------------|
|-----------------|9---------------|----------------|----------------|
|7-------10-------|----------------|6---------------|6-66666666666666|
|--000000---000000|--0000000000----|4-44444444444444|----------------|
|-----------------|------------3333|----------------|----------------|

|----------------|----------------|-----------------|----------------|
|----------------|----------------|-----------------|----------------|
|----------------|----------------|-----------------|----------------|
|--------7-------|5---------------|5-------10-------|9-------22222222|
|7-000000--000000|--0000000000----|--000000---000000|--000000--------|
|----------------|------------3333|-----------------|----------------|

|-----------------|----------------|----------------|----------------|
|-----------------|----------------|----------------|----------------|
|-----------------|9---------------|----------------|----------------|
|7-------10-------|----------------|6---------------|6-66666666666666|
|--000000---000000|--0000000000----|4-44444444444444|----------------|
|-----------------|------------3333|----------------|----------------|

B

Guitar Solo

|-ph-------------|.10--10-10~~-----|--------------------|------------------|
|10~----8--------|-----------------|--------------------|------------------|
|--------10-7~---|-----------------|10--9--7------------|------------------|
|----------------|-----------------|----------10--8--5--|7--5--------------|
|----------------|-----------------|--------------------|------3-----5~----|
|----------------|-----------------|--------------------|------------------|

|------1012131210--1210----10----|-------------------------|
|101213----------13----1312--1312|131210----13121015'~~----|
|--------------------------------|------1210---------------|
|--------------------------------|-------------------------|
|--------------------------------|-------------------------|
|--------------------------------|-------------------------|

|-t-------t---t-------t---t------|-----t-----------t---------|
|20171517201722171517201722171517|151720171517151322~~-------|
|--p-p-h---p---p-p-h---p---p-p-h-|--h---p-p-h-p-p------------|
|--------------------------------|---------------------------|
|--------------------------------|---------------------------|
|--------------------------------|---------------------------|

|----------------------|17----17------------------------|--------------------|
|17~~~~~17~17~15~~-----|--1720--2017------151715--15----|-------------ph-----|
|-----------------17~--|------------191717------17--17--|14-----------9~-----|
|----------------------|------------------------------17|--------------------|
|----------------------|--------------------------------|--------------------|
|----------------------|--------------------------------|--------------------|

|--------------------------------|-------------------------------|
|--------------------------------|17------18------19------20~----|
|------121412----151412--191715--|--141414--141414--141414-------|
|121415------1514------15------17|-------------------------------|
|--------------------------------|-------------------------------|
|--------------------------------|-------------------------------|

|--------------------------------|-----3------------------|
|------1517181715----------------|- _______---------ph----|
|141617----------171614----------| |   |   |---------x~~--|
|----------------------1714~-----|12  10   |--------------|
|--------------------------------|--------10-12~----------|
|--------------------------------|------------------------|

Guitar Solo 2

|--------------------------------|17151317151317151513121513121513|
|17151317151317151715131715131715|--------------------------------|
|--------------------------------|--------------------------------|
|--------------------------------|--------------------------------|
|--------------------------------|--------------------------------|
|--------------------------------|--------------------------------|

|17151317151317151715131715131715|--------------------------------|
|--------------------------------|18171518171518172120182120182120|
|--------------------------------|--------------------------------|
|--------------------------------|--------------------------------|
|--------------------------------|--------------------------------|
|--------------------------------|--------------------------------|

|--------------------------------|----------------1513121513121512|
|17151317151317151715131715131715|1817151817151817----------------|
|--------------------------------|--------------------------------|
|--------------------------------|--------------------------------|
|--------------------------------|--------------------------------|
|--------------------------------|--------------------------------|

|17151317151317151715131715131715|------------------|
|--------------------------------|171513171513171213|
|--------------------------------|------------------|
|--------------------------------|------------------|
|--------------------------------|------------------|
|--------------------------------|------------------|

|--------------------202224~~~-----|---------------------------12~--|
|--------------202224--------------|---------------------121315-----|
|--------192122--------------------|--------7910791091112-----------|
|--192122--------------------------|79107910------------------------|
|20--------------------------------|--------------------------------|
|----------------------------------|--------------------------------|

Chorus

Outro

|----------------|----------------|----------------|----------------|
|----------------|----------------|----------------|----------------|
|----------------|----------------|10--------------|10--------------|
|7---------------|7---------------|10--------------|10--------------|
|7---------------|7---------------|-8--------------|-8--------------|
|5---------------|5---------------|----------------|----------------|

|----------------|----------------|----------------|----------------|
|----------------|----------------|----------------|----------------|
|----------------|----------------|9---------------|----------------|
|7---------------|7---------------|9---------------|10------9-------|
|7---------------|7---------------|7---------------|-7------7-------|
|5---------------|5---------------|----------------|----------------|x4

|----------------|----------------|----------------|----------------|
|----------------|----------------|----------------|----------------|
|2222----22224444|5555777755554444|----------------|55552222--------|
|----2222--------|----------------|3333333333333333|--------33335555|
|----------------|----------------|----------------|----------------|
|----------------|----------------|----------------|----------------|

|----------------|----------------|----------------|----------------|
|----------------|----------------|----------------|----------------|
|2222----22224444|5555777755554444|----------------|5555555544444444|
|----2222--------|----------------|2222222222222222|----------------|
|----------------|----------------|----------------|----------------|
|----------------|----------------|----------------|----------------|(x4)

End




.  - palm mute                          /  - slide up to
\  - slide down to                      ~  - vibrato
"  - tremelo picking                    () - ghost note
p  - pull off                           h  - hammer-on
tr - trill notes                        fb - full bend (1step)
< > - harmonic

Tap to rate this tab
 
# A B C D E F G H I J K L M N O P Q R S T U V W X Y Z