Song name
# A B C D E F G H I J K L M N O P Q R S T U V W X Y Z

Norther - Frozen Sky tab

Intro 1

|----------------|----------------|----------------|----------------|
|----------------|----------------|----------------|----------------|
|----------------|----------------|----------------|----------------|
|----------------|----------------|----------------|----------------|
|2-2-2-----------|----------------|2-2-2-----------|----------------|
|0-0-0-----------|----------------|0-0-0-----------|----------------|

|----------------|----------------|----------------|----------------|
|----------------|----------------|----------------|----------------|
|----------------|----------------|----------------|----------------|
|----------------|----------------|----------------|----------------|
|2-2-2-----------|----------------|2---------------|----------------|
|0-0-0-----------|----------------|0---------------|----------------|

Piano Solo

Guitar Solo

|------------------|----------------|-----------------|
|------------------|----------------|-----------------|
|------9-12-11-----|----------------|-----------------|
|----9-------------|7-----------9---|10-9-----7---5---|
|--7-------------5-|----------7-----|-------5---3---5-|
|0-------------0---|--------0-----0-|-----3-----------|x3

|------------------|----------------|-----------------|
|------------------|----------------|-----------------|
|------9-12-11-----|----------------|-----------------|
|----9-------------|7-----------9---|10-9-5---5-4-----|
|--7-------------5-|----------7-----|-------------5---|
|0-------------0---|--------0-----0-|---------------7~~

|----------------|----------------|
|----------------|----------------|
|----------------|----------------|
|----------------|7---------------|
|----------------|7---------------|
~~~~~------------|5---------------|

Keyboard Solo

Guitar Solo

|18--------------|20--------------|18--------------|20--------------|
|----------------|---21~~---------|----------------|---21~~---------|
|----------------|-----------22---|----------------|----------------|
|----------------|----------------|----------------|----------------|
|----------------|----------------|----------------|----------------|
|----------------|----------------|----------------|----------------|

|18--------------|----------------|20-18-20~----18-|20-----18-------|
|----------------|21-20-----------|----------------|----------------|
|----------------|------20---20-17|----------------|----------------|
|----------------|----------------|----------------|----------------|
|----------------|----------------|----------------|----------------|
|----------------|----------------|----------------|----------------|

|18--------------|20--------------|18--------------|20--------------|
|----------------|---21~~---------|----------------|---21~~---------|
|----------------|-----------22---|----------------|----------------|
|----------------|----------------|----------------|----------------|
|----------------|----------------|----------------|----------------|
|----------------|----------------|----------------|----------------|

|18--------------|----------------|20-18-20~---18--|20-----18-------|
|----------------|21-20-----------|----------------|----------------|
|----------------|------20---20-17|----------------|----------------|
|----------------|----------------|----------------|----------------|
|----------------|----------------|----------------|----------------|
|----------------|----------------|----------------|----------------|

|----------------|
|21--------------|
|----------------|
|----------------|
|----------------|
|----------------|

Outro (Keyboard)


End




.  - palm mute                          /  - slide up to
\  - slide down to                      ~  - vibrato
"  - tremelo picking                    () - ghost note
p  - pull off                           h  - hammer-on
tr - trill notes                        fb - full bend (1step)
< > - harmonic
Tap to rate this tab
# A B C D E F G H I J K L M N O P Q R S T U V W X Y Z