Song name
# A B C D E F G H I J K L M N O P Q R S T U V W X Y Z

Northern Pikes - Echo Off The Beach tab

                     ********************************************************
                     *This is only for The Northern Pikes Unoffical Web-site*
                     ********************************************************

Song.....Echo Off The Beach
Band.....The Northern Pikes
Album....Truest Inspiration

Tabbed By...Dawson Irvine
E-mail......dawsoni@thepikes.every1.net

E||--------------------------|--------------------------|
B||--------------------------|--------------------------|
G||--------0-----------0-----|--------2-----------2-----|
D||-----2-----2-----0-----0--|-----0-----0-----0-----0--|
A||--3-----------2-----------|--0-----------0-----------|
E||--------------------------|--------------------------|

--------------------------|--------------------------|
--------------------------|--------------------------|
--------0-----------0-----|--------2-----------2-----|
-----2-----2-----0-----0--|-----0-----0-----0-----0--|
--3-----------2-----------|--0-----------0-----------|
--------------------------|--------------------------|

--------------------------|--------------------------|
--------------------------|--------------------------|
--------0-----------0-----|--------2-----------2-----|
-----2-----2-----0-----0--|-----0-----0-----0-----0--|
--3-----------2-----------|--0-----------0-----------|
--------------------------|--------------------------|

--------------------------|--------------------------||
--------------------------|--------------------------||
--------0-----------0-----|--------2-----------2-----||
-----2-----2-----0-----0--|-----0-----0-----0-----0--||
--3-----------2-----------|--0-----------0-----------||
--------------------------|--------------------------||
==============================================================
That is basiclly what he plays beside some strumming that I will
try to figure out as soon as I can.  Corrections, Problems, Please
e-mail me.
Tap to rate this tab
 
# A B C D E F G H I J K L M N O P Q R S T U V W X Y Z