Guitaretab - guitar tabs
Song name
# A B C D E F G H I J K L M N O P Q R S T U V W X Y Z

Northern Room - Stars Of God tab

As a HUGE Northern Room fan, I've listened to each song 100+ times and I am currently in 
process of tabbing each song. For 'Stars of God', the following is what the solo 
guitar is heard playing. I will be adding more and more as I progress through
tabbing the song. Enjoy!

Verse 1

E--------|-------|-------|-------|
A----2---|---4---|---7---|--10---|
D----1---|---3---|---7---|---9---|
G----0---|---0---|---0---|---0---|
B--------|-------|-------|-------|
E--------|-------|-------|-------|

- Play each partition 6 times in successive order until the end of the 1st verse

Chorus

E------10----------------10-------9-----------10-----------10----|
A--------10--------10------10------10-------10--10---10--10--10--|
D----------11--------11------11------11---12-----------12--------|
G----------------------------------------------------------------|
B----------------------------------------------------------------|
E----------------------------------------------------------------|


E------10----------------10-------9----------------------------------|
A--------10--------10------10------10-----------10-11--9-------------|
D----------11--------11------11------11---12-------------------------|
G--------------------------------------------------------------------|
B--------------------------------------------------------------------|
E--------------------------------------------------------------------|

Verse 2
(repeat same pattern as in Verse 1)
E--------|-------|-------|-------|
A----2---|---4---|---7---|--10---|
D----1---|---3---|---7---|---9---|
G----0---|---0---|---0---|---0---|
B--------|-------|-------|-------|
E--------|-------|-------|-------|
[ Tab from: http://www.guitaretab.com/n/northern-room/108939.html ]
Play this version when playing last set of partitions starting at "...there's flame"

E--------|-------|-------|-------|----5---|-------|
A----2---|---4---|---7---|---5---|----5---|---7---|
D----1---|---3---|---7---|---7---|----7---|---7---|
G----0---|---0---|---0---|---0---|----0---|---0---|
B--------|-------|-------|-------|--------|-------|
E--------|-------|-------|-------|--------|-------|

Play 4th last partition 3 times, 3rd last twice, 2nd last once, and last 6 times

Chorus

E------10----------------10-------9-----------10-----------10----|
A--------10--------10------10------10-------10--10---10--10--10--|
D----------11--------11------11------11---12-----------12--------|
G----------------------------------------------------------------|
B----------------------------------------------------------------|
E----------------------------------------------------------------|


E------10----------------10-------9-----------10-----------10----|
A--------10--------10------10------10-------10--10---10--10--10--|
D----------11--------11------11------11---12-----------12--------|
G----------------------------------------------------------------|
B----------------------------------------------------------------|
E----------------------------------------------------------------|

E------10----------------10-------9------------------------------|
A--------10--------10------10------10-------10--------10---------|
D----------11--------11------11------11---12----11---------------|
G----------------------------------------------------------------|
B----------------------------------------------------------------|
E----------------------------------------------------------------|

The rest will be tabbed in due time. Peace!
Related for Stars Of God tab
Advertisement will be closed in 10 seconds