Song name
# A B C D E F G H I J K L M N O P Q R S T U V W X Y Z

Northern Room - Were On Fire tab

Tabbed by: Northstar08
Tuning: Standard

This is the tab for We're On Fire, by the amazing band Northern Room.  This tab should 
mostly right, although I could not confidently tab the bridge.

Any questions, contact Northstar on the Northern Room message board: www.centerofthecentury.com


Intro:
e|----------------------------------------------------------------------|
B|----------------------------------------------------------------------|
G|--8--11-10/6------6-----8--11--10-11-10/6--11-10/6--------------------|
D|--------------4-6-----------------------------------------------------|
A|----------------------------------------------------------------------|
E|----------------------------------------------------------------------|


First Verse:
e|------------9--------------------------------------------------------|
B|--6-7-6-9-6---9-7-9---6-7-6-9-6-2------------------------------------|
G|---------------------------------------------------------------------|
D|---------------------------------------------------------------------|
A|---------------------------------------------------------------------|
E|---------------------------------------------------------------------|

Pre-Chorus:
e|---------------------------------------------------------------------|
B|---------------------------------------------------------------------|
G|--8--11-10------------------8--11-10-11-10------11--10---------------|
D|-----------11-------11---------------------11------------11----------|
A|-------------9-11----------------------------------------------------|
E|---------------------------------------------------------------------|

Chorus:
e|--------9-------------------------------------------|
B|--6-7-9---9-6-9-------------------------------------|
G|----------------------------------------------------|    x7
D|----------------------------------------------------|
A|----------------------------------------------------|
E|----------------------------------------------------|

e|---------------------------------------|
B|--6-7-9--6-2---------------------------|
G|---------------------------------------|
D|---------------------------------------|
A|---------------------------------------|
E|---------------------------------------|


Second Verse:
e|--9-9-9-9------------------9-----------------------------------------|
B|-9-9-9-9-7-7-7-6-6-6-7-9-9---9/2-------------------------------------|
G|---------------------------------------------------------------------|
D|---------------------------------------------------------------------|
A|---------------------------------------------------------------------|
E|---------------------------------------------------------------------|


Solo:
e|--9-9-9-9------------------9---------------------|
B|-9-9-9-9-7-7-7-6-6-6-7-9-9---9/2-----------------|
G|-------------------------------------------------|	x2
D|-------------------------------------------------|
A|-------------------------------------------------|
E|-------------------------------------------------|
Tap to rate this tab
# A B C D E F G H I J K L M N O P Q R S T U V W X Y Z