Song name
# A B C D E F G H I J K L M N O P Q R S T U V W X Y Z

Northlane - Quantum Flux tab

Tuning (low to high) F C F Eb G C (I know its meant to be 7 but cant afford one)
notation:
t-Tap
p-Pull off
h-Hammer on
s-slide
b-bend
tr-tremolo
x-mute
Intro
e --t17p0-t12s8--------t17p0-t12s8--------t17p0-t12s8s10s8-----|
A -------------t10s12-------------t10s12-----------------------|
D -------------------------------------------------------------|
G -------------------------------------------------------------|
B -------------------------------------------------------------|
E -------------------------------------------------------------|

e --t17p0-t12s8--------t17p0-12t24-t12s15p0--t12s8-------------|
A -------------t10s12------------------------------t10s12------|
D -------------------------------------------------------------|
G -------------------------------------------------------------|
B -------------------------------------------------------------|
E -------------------------------------------------------------|


e --t15p0-12s8--------t15p0-12s8--12s8s10s8--t15p0-t12s8----------t12s15p0-|
A -------------10s12-------------------------------------t10s12------------|
D -------------------------------------------------------------------------|
G -------------------------------------------------------------------------|
B -------------------------------------------------------------------------|
E -------------------------------------------------------------------------|

Riff 1
e ------------------------------------------------------------|
A ------------------------------------------------------------|
D ------------------------------------------------------------|
G ------------------------------------------------------------|
B -----------2b-----------2b-----2b--------2b-----------------|
E -0-00-0-00----0-0-00-00----0-0---0-00-00---0-00-000-0-3101--|

Clean verse
e --------------------------------------------------------------------|
A -----------------------------(---12-)x8-(----13)x8-13tr12tr18tr13tr-|
D --9-(in some weird pattern)--(0-9---)---(0-9---)--------------------|
G --------------------------------------------------------------------|
B --------------------------------------------------------------------|
E --------------------------------------------------------------------|

e ------------------------------------------------------------------|
A --tr13120--tr13---------------------------------------------------|
D ------------------------------------------------------------------|
G ------------------------------------------------------------------|
B ------------------------------------------------------------------|
E ------------------------------------------------------------------|

Chorus
e ----------------------------------------------------------------------------|
A -----5----------------------------------------------------------------------|
D ----------------7-4--------------5----------4-------------5-----------------|
G -----------------------------------------------------5-4-0----------7-------|
B -2-----2--7-------------4---------------------------------------------5-----|
E ---0----0---5-5-----0-0--5-8-8-8--8-88-88----888-8-8-------3-33-3-3----3-33-|

e ----------------------------------------------------------------------------|
A ----------------------------------------------------------------------------|
D ----------------------2---------4----5---------5-4-----------4--------------|
G ----------7-----------------------------------------------------------------|
B ------------5---------------------------------------------------------------|
E -5-55-55------0-0-00---00-0-0-0--0-00--88-8-8-8---55-5-55-55--5-0-0-0-00-0--|

e ---------------------------------------------12---------------------------|
A -----------------------------------------------13-------------------------|
D ----------------5---------------------------------------------------------|
G ----------5-4-0------------7----------------------------------------------|
B -----------------------------5--------------------------------------------|
E -00-000-0---------3-33-3-3-----3-33-5-55-55------0------------------------|

pre-riff 1
e ----------------------------------------------------------------------|
A -tr13-----------------------------------------------------------------|
D -tr16-----------------------------------------------------------------|
G ----------------------------------------------------------------------|
B ----------------------------------------------------------------------|
E ----------------------------------------------------------------------|

Riff 1
e ------------------------------------------------------------|
A ------------------------------------------------------------|
D ------------------------------------------------------------|
G ------------------------------------------------------------|
B -----------2b-----------2b-----2b--------2b-----------------|
E -0-00-0-00----0-0-00-00----0-0---0-00-00---0-00-000-0-3101--|

last ending for riff 1

Riff 1
e ---------------------|
A ---------------------|
D ---------------------|
G ---------------------|
B ---------------------|
E -0-000-00------------|
Set me free
e ------------------------------------------------------------------|
A ------------------------------------------------------------------|
D ------------------------------------------------------------------|
G ------------------------------------------------------------------|
B ------------------------------------------------------------------|
E -0b-0-0b-xx-0b-0-0-0-0b-xx-0-3101---------------------------------|

Chorus
e ----------------------------------------------------------------------------|
A -----5----------------------------------------------------------------------|
D ----------------7-4--------------5----------4-------------5-----------------|
G -----------------------------------------------------5-4-0----------7-------|
B -2-----2--7-------------4---------------------------------------------5-----|
E ---0----0---5-5-----0-0--5-8-8-8--8-88-88----888-8-8-------3-33-3-3----3-33-|

e ---------------------------------------------------------------------------|
A ---------------------------------------------------------------------------|
D ----------------------2---------4----5---------5-4-----------4-------------|
G ----------7----------------------------------------------------------------|
B ------------5--------------------------------------------------------------|
E -5-55-55------0-0-00---00-0-0-0--0-00--88-8-8-8---55-5-55-55--5-0-0-0-00-0-|

e ---------------------------------------------12---------------------------|
A -----------------------------------------------13-------------------------|
D ----------------5---------------------------------------------------------|
G ----------5-4-0------------7----------------------------------------------|
B -----------------------------5--------------------------------------------|
E -00-000-0---------3-33-3-3-----3-33-5-55-55------0------------------------|


e --t17p0-t12s8--------t17p0-t12s8--------t17p0-t12s8s10s8-----|
A -------------t10s12-------------t10s12-----------------------|
D -------------------------------------------------------------|
G -------------------------------------------------------------|
B -------------------------------------------------------------|
E -------------------------------------------------------------|

e --t17p0-t12s8--------t17p0-12t24-t12s15p0--t12s8-------------|
A -------------t10s12------------------------------t10s12------|
D -------------------------------------------------------------|
G -------------------------------------------------------------|
B -------------------------------------------------------------|
E -------------------------------------------------------------|


e --t15p0-12s8--------t15p0-12s8--12s8s10s8--t15p0-t12s8----------t12s15p0-|
A -------------10s12-------------------------------------t10s12------------|
D -------------------------------------------------------------------------|
G -------------------------------------------------------------------------|
B -------------------------------------------------------------------------|
E -------------------------------------------------------------------------|


Riff 1
e ------------------------------------------------------------|
A ------------------------------------------------------------|
D ------------------------------------------------------------|
G ------------------------------------------------------------|
B ------------------------------------------------------------|
E -0-0b-0--0-0-0--0-0--0-0-0--0-0b-0--0-0-0--0-0-0--0-0-0b----|


Thanks for reading everybody :) please note that this is my first tab, I'm only 14 years 
old and i learnt it by ear so don't blame me if I'm not too great :(
if you have any concerns about how shit this tab is, email me at wojtek8@live.com.au or 
if you just want to correct me, or compliment me :)


Thanks :D #northlane4lyf
Tap to rate this tab
# A B C D E F G H I J K L M N O P Q R S T U V W X Y Z