Song name
# A B C D E F G H I J K L M N O P Q R S T U V W X Y Z

Northstar - For Members Only Acoustic tab

Help us improve GuitareTab! Take a short survey!
Northstar - For Members Only (Acoustic)
http://www.myspace.com/northstar

*For some reason when copying and pasting this tab, it pushes all of the chords 
above the lyrics together, so just listen to the song closely to hear when the 
chords change. Enjoy!

standard Tuning, Capo on 5th fret.

Intro:
|------------|
|---1h0------|
|-0-----0----|
|------------|
|------------|
|------------|

Verse:
Am	C			   F
Just forget all about fate
F							Am
While I unlock this gentlemens promise
			C			     F
With Flesh like fire but it lacks a color
F									Am
And chemical laughs (that) fly around like drama
		C				F
I know I move like an apparition
F					Am
in a style thats all ghostwritten
				C			F
but these are the things I can take apart
F					
These are the things I can take


Bridge:
C				  Am
You move me like Ive got new feet
C		   Am		F		C			
Just dont leave me like this
			Am	F	C Am G (stop)
because I need wonder.


Chorus:
F
My stereo has blown away
Am		        C
So for now your voice can stay
F
But once they all circle me.
Am		    C			F
 I will rip apart this machine

			  F	
|-----1h0--------1---------------------------|
|---1-----3-5----1---1h0------------1h0------|
|-0--------------2-------0-2------0-----0----|
|----------------3---------------------------|
|----------------3---------------------------|
|----------------1---------------------------|


Verse:
Am
I am a prince
C
With paper parts
F
Made of spit and paper dolls
Am			C
A killers karma has been bound
F
Uneven seams
F
a broken bow
Am			C
Shes got this problem with people flying
F
One way tickets and a fear of crying
Am				C
But these are the things she can take apart
F
These are the things I will take.


Bridge:
C				  Am
You move me like Ive got new feet
C	        Am		F		C
Just dont leave me like this
			Am	F	
because I need wonder.
C	        Am		F		C Am F - C Am G (stop)
Just dont leave me like this


Chorus:
F
My stereo has blown away
Am			C
So for now your voice can stay
F
But once they all circle me.
Am			C
 I will rip apart this machine
F
My stereo has blown away
Am		      C
So for now your voice can stay
F
But once they all circle me.
Am		    C				F
 I will rip apart this machine

			  F	
|-----1h0--------1---------------------------|
|---1-----3-5----1---1h0------------1h0------|
|-0--------------2-------0-2-------0-----0---|  
|----------------3---------------------------|
|----------------3---------------------------|
|----------------1---------------------------|


Finger pick pattern is: 
  F				  Am			  C
|-----------------------------------------------------------------|
|--1--1--1-1--1--1-1--1--1-1--1--1--1--1--1-1--1--1-1--1---1---1--|
|---2--2----2--2----2--2----2--2-----2--2----2--2----2--2---2---0-|
|----3--3----3--3----3--3----3--3-----2--2----2--2----2--2---2---2| 
|----------------------------------0-------0-------0------0---3---|
|-1-------1-------1-------1---------------------------------------|
Repeat whole finger pattern x2

Outro:
F				Am		C
I cut her up and sent all the parts and
F								
They hung them on all the corners and bars

|----------0---|
|---1h0----1---|
|-0-----0--2---|
|----------2---|
|----------0---|
|----------0---|
Related for For Members Only Acoustic tab