Guitaretab - guitar tabs
Song name
# A B C D E F G H I J K L M N O P Q R S T U V W X Y Z

Northstar - Pornographers Daughter tab

-------------------------------------------------------------------------------
			     The Pornographers Daughter- Northstar
-------------------------------------------------------------------------------
Tabbed by: Kevin G., don't thank me thank the dude on the N* message board
Email:

Tuning: Standard (not drop D)

Lead: Verse, "I can't leave with words like these"

e|---------------------------------------------------------------------------|
B|------4--------------------------------------------------------------------|
G|---4---4----4-6p4----------------------------------------------------------|
D|--6-6---6--6---------6---4---6-6h7p6---------------------------------------|
A|-4--------0-----------------0-0--------------------------------------------|
E|------------------00---00--------------------------------------------------|

Lead: interlude

e|----4--------4-------------------------------------------------------------|
B|---5-5------5-5------------------------------------------------------------|
G|--6---6----6---6-----------------------------------------------------------|
D|-6--------6----------6---4--6-6h7p6----------------------------------------|
A|4--------0-----------------0-0---------------------------------------------|
E|-------------------00--00--------------------------------------------------|

Lead: Pre chorus "I'll be holding my breath"  Rhythm strums these chords 8x palm muted

e|---------------------------------------------------------------------------|
B|---------------------------------------------------------------------------|
G|---4-6-4-6-4-2-------------------------------------------------------------|
D|-6-4-6-4-6-4-2--------let ring---------------------------------------------|
A|-6-2-4-2-4-2-0-------------------------------------------------------------|
E|-4-------------------------------------------------------------------------|

Lead: Chorus, "this is not for me"
e|---------------------------------------------------------------------------|
B|---------------------------------------------------------------------------|
G|----4----------------------------------------------------------------------|
D|-------7p6-----------------------------------------------------------------|
A|--4--4---------------------------------------------------------------------|
E|---------------------------------------------------------------------------|
[ Tab from: http://www.guitaretab.com/n/northstar/52899.html ]
Lead: Post chorus
e|---------------------------------------------------------------------------|
B|---------------------------------------------------------------------------|
G|---4--------6-------------------4------------------------------------------|
D|------4h6-----7-6-4-----------------4h6-----6---6h7p6----------------------|
A|-4--4-----4----------7-6-----4---4-----------------------------------------|
E|------------------------------------------0--------------------------------|

Lead: Outro (my own) "I'll be the reason"
e|-------------9-----12-----4----2-------------------------------------------|
B|-------------7-----10-----2----0-------------------------------------------|
G|-strum 8x------------------------------------------------------------------|
D|---------------------------------------------------------------------------|
A|---------------------------------------------------------------------------|
E|---------------------------------------------------------------------------|

Rhythm: verse/interlude (palm mute)
e|---------------------------------------------------------------------------|
B|---------------------------------------------------------------------------|
G|6-2---4--------------------------------------------------------------------|
D|4-2-2-4---------strum each chord 8 times-----------------------------------|
A|4-0-2-2--------------------------------------------------------------------|
E|----0----------------------------------------------------------------------|

Rhythm: Chorus 
e|---------------------------------------------------------------------------|
B|---------------------------------------------------------------------------|
G|-------2-----6-----2-----4-------------------------------------------------|
D|-2-----2x8--6-x8--2-x4--4-x8----------------------------------------------|
A|-2-x8--0-----4-----0-----2-------------------------------------------------|
E|-0-------------------------------------------------------------------------|

Rhythm: Outro
e|---------------------------------------------------------------------------|
B|---------------------------------------------------------------------------|
G|-------------6-----4-------------------------------------------------------|
D|-4-----7x8--6-x8--4-x8----------------------------------------------------
A|-4-x8--7-----4-----2-------------------------------------------------------|
E|-2-----5-------------------------------------------------------------------|


Wow finally a correct tab!


| /  slide up
| \  slide down
| h  hammer-on
| p  pull-off
| ~  vibrato
| +  harmonic
| x  Mute note
===============================================================================
Related for Pornographers Daughter tab