Song name
# A B C D E F G H I J K L M N O P Q R S T U V W X Y Z

Northstar - Rocket City tab

Help us improve GuitareTab! Take a short survey!
-----------------------------------------------------------------------
			     Rocket City - Northstar
-----------------------------------------------------------------------
Tabbed by: Dave
Email: punkguitarist6@yahoo.com

Tuning: Regular
I'm not quite sure this is right but this is what I came up with... So if you have any
better tabs email me and ill correct it

e|--------------------------------------------------------------------|
B|--------------------------------------------------------------------|
G|--------------------------------------------------------------------|
D|-9-9-9-9-9-9-9-9--99--12-12-12-12-12-12-12-12--1212-----------------|
A|-9-9-9-9-9-9-9-9--99--12-12-12-12-12-12-12-12--1212-----------------|
E|-7-7-7-7-7-7-7-7--77--10-10-10-10-10-10-10-10--1010-----------------|
 PM..................................................
e|--------------------------------------------------------------------|
B|--------------------------------------------------------------------|
G|--------------------------------------------------------------------|
D|-5--------------------------------------repeat 4 times--------------|
A|-5-x16--------------------------------------------------------------|
E|-3------------------------------------------------------------------|
 PM.....
Related for Rocket City tab