Guitaretab - guitar tabs
Song name
# A B C D E F G H I J K L M N O P Q R S T U V W X Y Z

Northstar - Like Am Radio tab

Artist: Northstar
Title: Like A.M. Radio

This is mostly lead... not so much rhythm like what is heard in the begining.

Guitar 1
verse (not exact but close)
E---2----5p0--2--2-|
B-3------------3---|
G------------------|repeat through verse
D------------------| 
A------------------|
E------------------|

Prechorus
E---------------------|
B---------------------|
G-7777-2222-----------|
D-7777-2222-5555-2222-|4x
A-5555-0000-5555-2222-|
E-----------3333-0000-|

part right before chorus
E--------------------------------|
B---------------------10---------|
G--------11-9----9-11----11-9----|
D-555555------12--------------12-|
A-555555-------------------------|
E-333333-------------------------|

Chorus 2x
E------------------------------------------------------|
B-----------------------------15-------15-------15-----|
G-77777777----------4444---------14-------14-------14--|
D-77777777-55555555-4444-5555-------16-------16--------|
A-55555555-55555555-2222-5555--------------------------|
E----------33333333------3333--------------------------|
[ Tab from: http://www.guitaretab.com/n/northstar/86253.html ]
post chorus
E---------------------------|-----------------------|
B-----15-------15-------15~-|---15-------15---------|
G--------14-14----14-14-----|-----14-------14-------|
D-16~-----------------------|-16-------16-------16~-|
A---------------------------|-----------------------|
E---------------------------|---------2x------------|

riff before verse (not exact but close)
E-----------------------------------------------------|
B-----------------------------------------------------|
G-----4s6s4-------------------4s6s4-------------------|
D---7-------7-4-0---0-2h4---7-------7-4-0---0-2h4-2-0-| 2x
A-5---------------5-------5---------------5-----------|
E-----------------------------------------------------|

reapeat everything again

bridge
E-------|-------------4x----------------------|
B-------|-------------------------------------|
G-4~----|-44444444-77777777-------------------|
D-4~----|-44444444-77777777-55555555-22222222-|
A-2~----|-22222222-55555555-55555555-22222222-|
E-------|-------------------33333333-00000000-|

End
E-------------|
B-------------|
G-44--77------|
D-44--77--5~--|
A-22--55--5~--|
E---------3~--|

~ Found where ever...
Related for Like Am Radio tab
×
Like Am Radio