Song name
# A B C D E F G H I J K L M N O P Q R S T U V W X Y Z

Northwestern Marching Band - Go U Northwestern tab

E  ------------------------------------------------------------------------|
B  ------------------------------------------------------------------------|
G  -------------7---5-3-----3----------2-3---------7--2-3---------7-6------|
D  ----1-2-3---------- --5-----3---5---------5--3----------10--7--------10-|
A  -5----------------------------------------------------------------------|
E  ------------------------------------------------------------------------|

E  -----------------------------------------------------------------------|
B  -----------------------------------------------------------------------|
G  --------------7-5-3----3---7----5----------7-5-3-----------------------|
D  ----1-2-3-----------5-------------5--4--5------------------------------|
A  -5---------------------------------------------------------------------|
E  -----------------------------------------------------------------------|

listen to the song it is simple

i could not do the Go U Northwestern go part
Tap to rate this tab
# A B C D E F G H I J K L M N O P Q R S T U V W X Y Z