Song name
# A B C D E F G H I J K L M N O P Q R S T U V W X Y Z

Nose - Solo Una Vez tab

Hola esta es una cancion de la banda NOSE, es muy facil de tocar y por eso hice 
una tablatura! espero que les sirva!
Canción: https://www.youtube.com/watch?v=iTfFBpysGXA

Tiene 2 guitarras, pero la ritmica es todo el rato lo mismo, por las dudas la pondre igual

Guitarra lider:

INTRO:

e|----------------------------------------------------------------------|
B|----------------------------------------------------------------------|
G|----------------------------------------------------------------------| 
D|---7--7-5--5-5-4-----7-77-5--5-5-4---7--7-5--5-5-4---7--7-5--5-5-4----| x1
A|-55-55-5-55-5-5-5--4444444-44-4-4-4----------------00-00-0-00-0-0-0---|
E|-----------------------------------77-77-7-77-7-7-7-------------------|

PM:-----------------------------------------------------------------
CUANDO EMPIEZA LA BATERIA:

e|---------------------------------------------------------------------|
B|---------------------------------------------------------------------|
G|---------------------------------------------------------------------| 
D|--0070070500505040--7--7-5--5-5-4---7--7-5--5-5-4---7-77-5-555-5-4-0-|
A|------------------44-44-4-44-4-4-4----------------00-----------------|
E|----------------------------------77-77-7-77-7-7-7-------------------|

Verso:
Los 10 SON 10 no 1 y 0 Y LOS 11 SON ONCES
|---------------------------------------------------------------------------|
|--------1010101010101010---------------------------------------------------|
|77777777-------------------------99999999--------11111199977--------6--7--6| 
|------------------------777777777--------99999999-----------55555555-55-55-|
|---------------------------------------------------------------------------|
|---------------------------------------------------------------------------|

PM:-------------------------------------------------------------------------

|---------------------------------------------------------------------------|
|--------1010101010101010---------------------------------------------------|
|77777777-------------------------99999999--------11111199977--------6--7--6| 
|------------------------777777777--------99999999-----------55555555-------|
|---------------------------------------------------------------------------|
|---------------------------------------------------------------------------|

PM:-----------------------------------------------------------------

CORO:

|-------------------------------------------------------------------------|
|-------------------------------------------------------------------------|
|7-77777-11111111111111116-66666-9-99999997-777776-6666667-777774-446-66--| 
|x-xxxxx-x-x-x-x-x-x-x-x-x-xxxxx-x-xxxxxxxx-xxxxxx-xxxxxxx-xxxxxx-xxx-xx--|
|5-55555/9-9-9-9-9-9-9-9-4-44444/7-77777775-555554-4444445-555552-224-44--|
|-------------------------------------------------------------------------|

|-------------------------------------------------------------------------|
|-------------------------------------------------------------------------|
|7-77777-11111111121211116-66666-9-99999997-777776-6666667-777774-446-66--| 
|x-xxxxx-x-x-x-x-x-x-x-x-x-xxxxx-x-xxxxxxxx-xxxxxx-xxxxxxx-xxxxxx-xxx-xx--|
|5-55555/9-9-9-9-10109-9-4-44444/7-77777775-555554-4444445-555552-224-44--|
|-------------------------------------------------------------------------|

INTRO 1 x1
INTRO 2 x1
Verso 2: igual que el primero
CORO X1

Interludio:


|--------------------------------------------------------------------------|
|--------------------------------------------------------------------------|
|-7---------------12--11-9--7----11-9--7---9--7--6---7-------779911111212--| 
|-x-------14------x---x--x--x----x--x--x---x--x--x---x (x16)-xxxxxxx-x-----|
|-5-------x-------10--9--7--5----9--7--5---7--5--4---5-------55779-9-1010--|
|---------12---------------------------------------------------------------|

Repite CORO

FINAL:
|---------------------------------------------------------|
|---------------------------------------------------------|
|--7-7-7-77-7-7-7--77--7----------------------------------| 
|--X-X-X-XX-X-X-X--XX--X----------------------------------|
|--5-5-5-55-5-5-5--55--5----------------------------------|
|---------------------------------------------------------|

Guitarra ritmica

LO UNICO QUE NECESITAN SABER ES ESTO:

|--------------------------------------------------------------------|
|--------------------------------------------------------------------|
|--------------------------------------------------------------------| 
|--777777777777777722222222222222224444444444444444------------------|
|--5555555555555555000000000000000022222222222222225555555555555555--|
|--------------------------------------------------3333333333333333--|

INTRO X 1

VERSO X2 CON PALM MUTE
CORO X2
VERSO X2 CON PALMUTE
CORO X2
INTERLUDIO: SE DEJA SONANDO CADA ACORDE
CORO X 2

www.facebook.com/nosechile      
Tap to rate this tab
# A B C D E F G H I J K L M N O P Q R S T U V W X Y Z