Guitaretab - guitar tabs
Song name
# A B C D E F G H I J K L M N O P Q R S T U V W X Y Z
Home / N / Nosliw / Musik tab

Nosliw - Musik tab

-------------------------------------------------------------------------------
			     Nosliw - Musik
-------------------------------------------------------------------------------
Tabbed by:Alexander Z.
Email:saftcheck_@arcor.de <-send me corrections

Tuning:standart
[ Tab from: http://www.guitaretab.com/n/nosliw/84166.html ]
2xRiff
Riff
    A                      c#m        |only the first time|
e|----5-----5-----5----------4----4---|--4--------|
B|----5-----5-----5----------5----5---|--5--------|
G|O---4-----4-----4----------6----6---|--6-------O|
D|O-----------------------------------|----------O|
A|--------7----------7--6--4--------4-|-----4-----|
E|--5-----------5--------------4------|--------7--|


A c#m

Outro:
e|---5---5---5-------4---4-----------------5---5------------4---4-|
B|---5---5---5-------5---5-----------------5---5------------5---5-|
G|---4---4---4-------6---6-----------------4---4------------6---6-|
D|----------------------------------------------------------------|
A|-----5-------7-6-4--------4-----4----------5--------7-6-4-------|
E|-5-------5-----------4-------------7--5---------------------4---|

-----------------
...Ja, ich kann sagen, dass ich dich zum Überleben brauch!
-enjoy this-
Related for Musik tab
Advertisement will be closed in 10 seconds